Jason Mraz - I won't give up

(/) Slide Up  (\) Slide Down  (h) Hammer On  (p) Pull Off  (b) Bend (r) Release (v) Vibrato


E|-----------------------------------------------
B|-----------------------------------------------
G|-------------------6--6----4--4-------4--4-----
D|--2--2--2--4--6----7--7----6--6-------6--6-----
A|-----------------------------------------------
E|-------------------0-------0-----0----------0--



E|----------------------------------------
B|-------------5--5-------5--5---------4--
G|-------------4--4-------4--4---------4--
D|--6--4--2----4--4-------4--4---------4--
A|-------------2-----2----------2------2--
E|----------------------------------------
http://www.guitartabcreator.com
Guitar Tab Creator is intended to store guitar tab created through the tool. It currently does not support in-line text editing. Any text you place in here will be lost. If you need to comment on your tab, please use the "Tab Notes" section located below.