I feel good

(/) Slide Up  (\) Slide Down  (h) Hammer On  (p) Pull Off  (b) Bend (r) Release (v) Vibrato


E|-----------------------------------------------------------------------------------------
B|--8----8b9----6---------7--6--7--6--7--6--7----------------6b7---------7--6--7--6--7--6--
G|------------------------5--4--5--4--5--4--5----5--7--5--7--------------5--4--5--4--5--4--
D|-----------------------------------------------------------------------------------------
A|---------------------------0----------------------------------------------0--------------
E|-------------------0----------------------0-----------------------0----------------------



E|----------------------------------------------------------------------------------
B|--7--8b9--7-------6--5--6--5--6--5--6--------------6b7-------7--6--7--6--7--6--7--
G|--5---------------4--3--4--3--4--3--4--5--7--5--7------------5--4--5--4--5--4--5--
D|----------------------------------------------------------------------------------
A|----------------------------------------------------------------0-----------------
E|--0------------5-----0--------------5-------------------0----------------------0--
http://www.guitartabcreator.com
Guitar Tab Creator is intended to store guitar tab created through the tool. It currently does not support in-line text editing. Any text you place in here will be lost. If you need to comment on your tab, please use the "Tab Notes" section located below.