Come together

(/) Slide Up  (\) Slide Down  (h) Hammer On  (p) Pull Off  (b) Bend (r) Release (v) Vibrato

E|--------------------
B|--------------------
G|--------------------
D|--------------------
A|--------------8--5--
E|--0--0----/7--------



E|-----------------------------------------------------
B|-----------------------------------------------------
G|-----------------------------------------------------
D|--------------------------------------------------5--
A|--7--7--9--9--7--7--9--9--7--7--9--9--7--7--7--7--5--
E|--7--7--7--7--7--7--7--7--7--7--7--7--7--7--7--7--5--



E|-----------------------------------------
B|-----------------------------------------
G|-----------------------------------------
D|--7--7--7--7--7--7--5--5--3--3--3--3--5--
A|--7--7--7--7--7--7--5--5--3--3--3--3--5--
E|--7--7--7--7--7--7--5--5--3--3--3--3--5--



E|--------------------------------------------------------
B|--------------------------------------------------------
G|--------------------------------------------------------
D|--0--0--0--0--0--0--0--0--------------------------------
A|--0--0--0--0--0--0--0--0--------7--7--9--9--7--7--9--9--
E|--0--0--0--0--0--0--0--0--------7--7--7--7--7--7--7--7--
http://www.guitartabcreator.com
Guitar Tab Creator is intended to store guitar tab created through the tool. It currently does not support in-line text editing. Any text you place in here will be lost. If you need to comment on your tab, please use the "Tab Notes" section located below.