Cocaine - Eric clapton

(/) Slide Up  (\) Slide Down  (h) Hammer On  (p) Pull Off  (b) Bend (r) Release (v) Vibrato


E|--4--4--2--4-------0--2--
B|--5--5--3--5----------3--
G|--4--4--2--4--2/4-----2--
D|-------------------------
A|-------------------------
E|-------------------------



E|--------------
B|--------------
G|--9--7--5--4--
D|--9--7--5--4--
A|--7--5--3--2--
E|--------------
http://www.guitartabcreator.com
Guitar Tab Creator is intended to store guitar tab created through the tool. It currently does not support in-line text editing. Any text you place in here will be lost. If you need to comment on your tab, please use the "Tab Notes" section located below.