Alice Cooper - Poison refrein

(/) Slide Up  (\) Slide Down  (h) Hammer On  (p) Pull Off  (b) Bend (r) Release (v) Vibrato


E|------------------------
B|------------------------
G|--12------8---------10--
D|--12------8----8----10--
A|--10------6----8----8---
E|---------------8--------



E|---------------------------
B|---------------------------
G|-----------------8---------
D|--10------6------8------8--
A|--10------6------6------8--
E|--10------6-------------8--
http://www.guitartabcreator.com
Guitar Tab Creator is intended to store guitar tab created through the tool. It currently does not support in-line text editing. Any text you place in here will be lost. If you need to comment on your tab, please use the "Tab Notes" section located below.