tagpuan

(/) Slide Up  (\) Slide Down  (h) Hammer On  (p) Pull Off  (b) Bend (r) Release (v) Vibrato


E|----------------------------------------
B|----------------------------------------
G|--------8--9--8-------------8--9--8-----
D|--5--7-----------7----5--7-----------7--
A|----------------------------------------
E|----------------------------------------



E|---------------
B|---------------
G|---------------
D|--7/9--7/9--7--
A|---------------
E|---------------



E|-----------------------------------------------------
B|-----------------------------------------------------
G|--------8--9--8-------------8--9--8------------------
D|--5--7-----------7----5--7-----------7----7/9--7--9--
A|-----------------------------------------------------
E|-----------------------------------------------------



E|----------------------------------------
B|----------------------------------------
G|----------------------------------------
D|--2/4--2/4--2/7--2/4--2/4--4/7--7/9--2--
A|----------------------------------------
E|----------------------------------------



E|-------------------------------
B|-------------------------------
G|-------------------------------
D|--2--4--2--4--2--4--2--4--4/7--
A|-------------------------------
E|-------------------------------



E|-------------------------------
B|-------------------------------
G|-------------------------------
D|--2--4--2--4--2--4--2--4--4/7--
A|-------------------------------
E|-------------------------------



E|-------------------------------
B|-------------------------------
G|-------------------------------
D|--2--4--2--4--2--4--2--4--4/7--
A|-------------------------------
E|-------------------------------



E|-------------------------------
B|-------------------------------
G|-------------------7--6--7-----
D|--2--4--2--4--4/7-----------5--
A|----------------------------5--
E|----------------------------3--



E|------------------------------------------
B|------------------------------------------
G|-----8-9-8--------8-9-8-------------------
D|-5-7-------7--5-7-------7-7/9-7-7-9-9-7-7-
A|------------------------------------------
E|------------------------------------------



E|-----------------------------------
B|-----------------------------------
G|-----8-9-8--------6-7-6------------
D|-5-7-------7--5-7-------7--7/9-7-9-
A|-----------------------------------
E|-----------------------------------



E|-
B|-
G|-
D|-
A|-
E|-
http://www.guitartabcreator.com
Guitar Tab Creator is intended to store guitar tab created through the tool. It currently does not support in-line text editing. Any text you place in here will be lost. If you need to comment on your tab, please use the "Tab Notes" section located below.