Tonight

(/) Slide Up  (\) Slide Down  (h) Hammer On  (p) Pull Off  (b) Bend (r) Release (v) Vibrato

E|--------------------------------------------------------------------------
B|--------------------------------------------------------------------------
G|--------------------------------------------------------------------------
D|--------------------------------------------------------------------------
A|-13\4-6---4-4-4-4-4-4-4-4-6-6-6-6-6-6-6-6---------------------------------
E|--------6---------------------------------6-6-6-6-6-6-6-6-6-6-6-6-6-6-6-6-



E|-----------------------------------------------------------
B|-----------------------------------------------------------
G|-----------------------------------------------------------
D|-----------------------------------------------------------
A|-4-4-4-4-4-4-4-6-6-6-6-6-6-6-------------------------------
E|-----------------------------6-6-6-6-6-6-6-6-6-6-6-6-6-6-6-



E|-----------------------------------------------------------
B|-----------------------------------------------------------
G|-----------------------------------------------------------
D|-----------------------------------------------------------
A|-4-4-4-4-4-4-4-6-6-6-6-6-6-6-------------------------------
E|-----------------------------6-6-6-6-6-6-6-6-6-6-6-6-6-6-4-



E|---------------------------------------------------------
B|---------------------------------------------------------
G|---------------------------------------------------------
D|---------------------------------------------------------
A|-4-4-4-4-4-4-4-6-6-6-6-9-8-6-----------------------------
E|-----------------------------6-6-6-6-6-6-6-6-6-6-6-6-6-6-



E|-----------------------------------------------------------
B|-----------------------------------------------------------
G|-------8-----8---------------------10---8h10---------------
D|---6-------6-------------6h8-8-8-8----8--------------------
A|-4---4---4-----6-6-6-6-6-----------------------------------
E|---------------------------------------------6-6-6-6-6-6-6-



E|--------------------------------------------------------
B|--------------------------------------------------------
G|--------------------------------------------------------
D|--------------------------------------------------------
A|--------------------------------------------------------
E|--6--6--6--6--6--6--6--4--4--6--6--6--6--6--9--9--9-----



E|--------------------------------------------------------------------------------------------
B|--------------------------------------------------------------------------------------------
G|--------------------------------------------------------------------------------------------
D|--------------------------------------------------------------------------------------------
A|--------------------------------------------------------------------------------------------
E|--6--6--6--6--6--6--6--4--4--6--6--6--8--8--8--9--9--9--9--9--9--9--9--9--9--9--9--9--9--9--



E|---------------------------------------------------------------------------------------
B|---------------------------------------------------------------------------------------
G|---------------------------------------------------------------------------------------
D|-------------------------------8/10--10--10--10--10--10--10--10--10--8--8--8--8--8-----
A|--------------------------6h8----------------------------------------------------------
E|--6--6--6--6--6--6--6--6---------------------------------------------------------------
http://www.guitartabcreator.com
Guitar Tab Creator is intended to store guitar tab created through the tool. It currently does not support in-line text editing. Any text you place in here will be lost. If you need to comment on your tab, please use the "Tab Notes" section located below.