Match Box Blues

(/) Slide Up  (\) Slide Down  (h) Hammer On  (p) Pull Off  (b) Bend (r) Release (v) Vibrato


E|----------------------------------------------------------------------------------
B|----------------------------------------------------------------------------------
G|----------------------------------------------------------------------------------
D|-------4--6----------------4--6----------------4--6----------------4--6-----------
A|--4h6--------2--4-----4h6--------2--4-----4h6--------2--4-----4h6--------2--4-----
E|-------------------4-------------------4-------------------4-------------------4--



E|------------------------------------------
B|------------------------------------------
G|------------------------------------------
D|-------------2--4----------------2--4-----
A|-------2--4--------4-------2--4--------4--
E|--2h4-----------------2h4-----------------



E|------------------------------------------
B|------------------------------------------
G|------------------------------------------
D|-------4--6----------------4--6-----------
A|--4h6--------2--4-----4h6--------2--4-----
E|-------------------4-------------------4--



E|----------------------
B|----------------------
G|----------------------
D|-------------4--6-----
A|-------4--6--------6--
E|--4h6-----------------



E|----------------------
B|----------------------
G|----------------------
D|-------------2--4-----
A|-------2--4--------4--
E|--2h4-----------------



E|---------------------------------------------
B|---------------------------------------------
G|---------------------------------------------
D|-------4--6----------------4--6--------------
A|--4h6--------2--4-----4h6--------6--6--6--6--
E|-------------------4-------------------------
http://www.guitartabcreator.com
Guitar Tab Creator is intended to store guitar tab created through the tool. It currently does not support in-line text editing. Any text you place in here will be lost. If you need to comment on your tab, please use the "Tab Notes" section located below.