Gravity Solo

(/) Slide Up  (\) Slide Down  (h) Hammer On  (p) Pull Off  (b) Bend (r) Release (v) Vibrato
E|----------------------------------------------------------------------------------------
B|--10h12/15--12---------12-----------------------------10h12/17--15\12/15--17--15h17-----
G|-----------------------12--12-----12--12------------------------------------------------
D|----------------12/14------12h14--12--14--12--------------------------------------------
A|------------------------------------------14p12h14--------------------------------------
E|----------------------------------------------------------------------------------------



E|--15--17--17b19b17p15-----------19--20--20b21b20--19p17\15-----------19---------17--
B|-------------------------15h17--------------------------------15h17------15h17------
G|------------------------------------------------------------------------------------
D|------------------------------------------------------------------------------------
A|------------------------------------------------------------------------------------
E|------------------------------------------------------------------------------------



E|---------19b20b19b20--19p15--------------------------------------------------
B|--15h17----------------------17\15/17--15----------------------15h17---------
G|----------------------------------------------------16--14b16---------12-----
D|----------------------------------------------------------------------14p12--
A|-----------------------------------------------------------------------------
E|-----------------------------------------------------------------------------
http://www.guitartabcreator.com
Guitar Tab Creator is intended to store guitar tab created through the tool. It currently does not support in-line text editing. Any text you place in here will be lost. If you need to comment on your tab, please use the "Tab Notes" section located below.