Three Years - Everember - Kevin Oliver

(/) Slide Up  (\) Slide Down  (h) Hammer On  (p) Pull Off  (b) Bend (r) Release (v) Vibrato
Intro
E|--------------------------------
B|--------------------------------
G|--------------------------------
D|--------------------------------
A|--------------------------------
E|--0--0----3--3/7--7----5--5--7--


Verse part 1
E|--------------------------------------------------------------------
B|--------------------------------------------------------------------
G|--------------------------------------------------------------------
D|--------------------------------------------------------------------
A|--------------------------------------------------------------------
E|--0--0--0--0----0----3----3--3--3----8--8--8--8----8----5--5--5--5--


verse part 2
E|-----------------------------------------------------------------
B|-----------------------------------------------------------------
G|-----------------------------------------------------------------
D|-----------------------------------------------------------------
A|-----------------------------------------------------------------
E|--0--0--0--0----0----3----3--3--3----8--8--8--8--8----8--8----8--


Chorus
E|--------------------------------------------------------------------------
B|--------------------------------------------------------------------------
G|--------------------------------------------------------------------------
D|--------------------------------------------------------------------------
A|--------------------------------------------------------------------------
E|--0--3--7--8----0--3--7--8----0--3--7--8----0--3----7--7----8--8--8----8--


Bridge part 1
E|----------------------------------------------------------------------
B|----------------------------------------------------------------------
G|----------------------------------------------------------------------
D|----------------------------------------------------------------------
A|----------------------------------------------------------------------
E|--0----0/8----0----0/8----0----0/8----10--10--10--10--10--10--10--10--


Bridge part 2
E|--------------------------------------------------------------------------------------------
B|--------------------------------------------------------------------------------------------
G|--------------------------------------------------------------------------------------------
D|--------------------------------------------------------------------------------------------
A|--------------------------------------------------------------------------------------------
E|--0--0--0--0/8--8--8--8--0--0--0--0/8--8--8--8--0--0--0--0/8--8--8--8--0--0--0--0--0--0--0--


Bridge part 2 continued
E|--------------------------------------------------------------------------------------
B|--------------------------------------------------------------------------------------
G|--------------------------------------------------------------------------------------
D|--------------------------------------------------------------------------------------
A|--------------------------------------------------------------------------------------
E|--0--0--0--0/8--8--8--8--0--0--0--0/8--8--8--8--0--0--0--0/8--8--8--8----8--10--3--5--
http://www.guitartabcreator.com
Guitar Tab Creator is intended to store guitar tab created through the tool. It currently does not support in-line text editing. Any text you place in here will be lost. If you need to comment on your tab, please use the "Tab Notes" section located below.