On to something good bass tab - Everember - Kevin Oliver

(/) Slide Up  (\) Slide Down  (h) Hammer On  (p) Pull Off  (b) Bend (r) Release (v) Vibrato
Intro Riff
E|--------------------------------------------------------------------------------
B|--------------------------------------------------------------------------------
G|--------------------------------------------------------------------------------
D|--------------------------------------------------------------------------------
A|------------------------9--7--6--9--7--6----------------------------------------
E|--9--9----9--9----0--0--------------------2--2----2--2--5--5--5--5--7--7--7--7--


Verse/Bridge
E|----------------------------------
B|----------------------------------
G|----------------------------------
D|----------------------------------
A|----------------------------------
E|--9\9--9--7\7--7--6\6--6--5----0--


Chorus
E|--------------------------------------------------------------------------------------------------
B|--------------------------------------------------------------------------------------------------
G|--------------------------------------------------------------------------------------------------
D|--------------------------------------------------------------------------------------------------
A|--------------------------------------------------------------------------------------------------
E|--9--9--9--9--9--9--9--9--0--0--0--0--0--0--0--0--2--2--2--2--2--2--2--2--5--5--5--5--7--7--7--7--


Outro
E|--------------------------------------------------------------------------------------------------
B|--------------------------------------------------------------------------------------------------
G|--------------------------------------------------------------------------------------------------
D|--------------------------------------------------------------------------------------------------
A|--------------------------------------------------------------------------------------------------
E|--9--9--9--9--9--9--9--9--7--7--7--7--7--7--7--7--6--6--6--6--6--6--6--6--5--5--5--5--0--0--0--0--
http://www.guitartabcreator.com
Guitar Tab Creator is intended to store guitar tab created through the tool. It currently does not support in-line text editing. Any text you place in here will be lost. If you need to comment on your tab, please use the "Tab Notes" section located below.