Saving Unity - Everember - Kevin Oliver

(/) Slide Up  (\) Slide Down  (h) Hammer On  (p) Pull Off  (b) Bend (r) Release (v) Vibrato
Intro
E|----------------------
B|----------------------
G|----------------------
D|----------------------
A|----------------------
E|--8--8--10--10--0-----


Verse part 1
E|---------------------------------------------------------------------
B|---------------------------------------------------------------------
G|---------------------------------------------------------------------
D|---------------------------------------------------------------------
A|---------------------------------------------------------------------
E|--0--8--8--8--8--10--8--8--8--8--10--8--8--8--8--10--8--8--8--8--10--


Verse part 2
E|------------------------------------------------------------------------------
B|------------------------------------------------------------------------------
G|------------------------------------------------------------------------------
D|------------------------------------------------------------------------------
A|------------------------------------------------------------------------------
E|--0/12--0/12--8--8--8--8--10--8--8--8--8--10--8--8--8--8--10--8--8--8--8--10--


Pre Chorus
E|---------------------------------------------------------------
B|---------------------------------------------------------------
G|--------------------------10-----------------------------------
D|--8--10--12----8--10--12------12--10----8--10--12----8--10-----
A|---------------------------------------------------------------
E|------------------------------------------------------------12\


Chorus part 1
E|----------------------
B|----------------------
G|----------------------
D|----------------------
A|----------------------
E|--8--8--10--10--0-----


Chorus part 2
E|--------------------------------------------------------------------------------------------
B|--------------------------------------------------------------------------------------------
G|--------------------------------------------------------------------------------------------
D|--------------------------------------------------------------------------------------------
A|-----------------------------------------------3--3--3-----------3--3--3-----------3--3--3--
E|--8--8--8--8--8--8--8--8--8--8--8--8--8--8--8-----------5--5--5-----------5--5--5-----------


Dancey Bridge
E|------------------------------------------------------------------
B|------------------------------------------------------------------
G|------------------------------------------------------------------
D|------------------------------------------------------------------
A|--5-----5-----5---------------------5-----5-----5-----------------
E|-----0-----0-------0--8--0--8--8-------0-----0-----0--8--0--8--7--


Guitar Solo
E|------------------------
B|------------------------
G|------------------------
D|------------------------
A|------------------------
E|-8--0--8--0-----8-3-0---


Outro
E|-------------------------------------------
B|-------------------------------------------
G|-------------------------------------------
D|-------------------------------------------
A|-------------------------------------------
E|--8--8--10--10--0----0--0----0--0----0--0--
http://www.guitartabcreator.com
Guitar Tab Creator is intended to store guitar tab created through the tool. It currently does not support in-line text editing. Any text you place in here will be lost. If you need to comment on your tab, please use the "Tab Notes" section located below.