New Love Bass Tab by Everember -Kevin Oliver

(/) Slide Up  (\) Slide Down  (h) Hammer On  (p) Pull Off  (b) Bend (r) Release (v) Vibrato
Verse
E|------------------------------------------------
B|------------------------------------------------
G|--------8--------8----------11----------13------
D|-----9--------9---------13------13----------14--
A|------------------------------------------------
E|--7--------7--------11--------------12----------


Pre-chorus
E|-----------------
B|-----------------
G|-----------------
D|-----------------
A|-----------------
E|--11--12--11--0--


Chorus
E|------------------------------------
B|------------------------------------
G|------------------------------------
D|------------------------------------ Play to the rhythm of the song.
A|--2--6--11--7--2--6--------6--------
E|---------------------4--0-----0-----


Bridge
E|--------------------------------
B|--------------------------------
G|-------------------------------- Play repeatedly. Again, listen the the rhythm on the cd.
D|--------------------------------
A|--7-----6--7-----6--7-----6-----
E|-----4--------4--------4-----0--
http://www.guitartabcreator.com
Guitar Tab Creator is intended to store guitar tab created through the tool. It currently does not support in-line text editing. Any text you place in here will be lost. If you need to comment on your tab, please use the "Tab Notes" section located below.