Are We in Love tab

(/) Slide Up  (\) Slide Down  (h) Hammer On  (p) Pull Off  (b) Bend (r) Release (v) Vibrato
verse part 1
E|--------------------------------------------------
B|--------------------------------------------------
G|--------------------------------------------------
D|--------------------------------------------------
A|--------------------------------------------------
E|--11--11--11--12--12--12--0--0--0--0--0--0--0--0--


verse part 2
E|--------------------------------------------
B|--------------------------------------------
G|--------------------------------------------
D|--------------------------------------------
A|--------------------------------------------
E|--7--7--7--9--9--9--0--0--0--0--0--0--0--0--


pre-chorus
E|-------------------------------------------------------------------------
B|-------------------------------------------------------------------------
G|-------------------------------------------------------------------------
D|-----------------------------------------7-------------------------------
A|--7--9--9--------------------------7--9----------------------------------
E|-----------0--9--9--0--0--5--5--0-----------0--9--9--11--11--11--11--11--


chorus
E|--------------------------------------------------
B|--------------------------------------------------
G|--------------------------------------------------
D|--------------------------------------------------
A|--------------------------------------------------
E|--5--5--5--0--0--0--0--9--9--9--9--5--5--5--5-----


chorus
E|--------------------------
B|--------------------------
G|--------------------------
D|--------------------------
A|--------------------------
E|--5--5--5--0--5--5--5--0--


bridge 1
E|------------------------------------------------------
B|------------------------------------------------------
G|--9--9--9--9--9--7--7--7--12--12--12--12--------------
D|------------------------------------------0--0--0--0--
A|------------------------------------------------------
E|------------------------------------------------------


bridge 2
E|-------------------------------------------------------------------------
B|-------------------------------------------------------------------------
G|-------------------------------------------------------------------------
D|-------------------------------------------------------------------------
A|-------------------------------------------------------------------------
E|-5-5-5-5-5-5-7-7-7-7-7-7-9-9-9-9-9-9-9-9-9-12-12-0-0-0-5-5-5-5-5-5-5-5-5-


verse alt.
E|--------
B|--------
G|--------
D|--------
A|--------
E|--0--0--
http://www.guitartabcreator.com
Guitar Tab Creator is intended to store guitar tab created through the tool. It currently does not support in-line text editing. Any text you place in here will be lost. If you need to comment on your tab, please use the "Tab Notes" section located below.