Divenire Step 1

(/) Slide Up  (\) Slide Down  (h) Hammer On  (p) Pull Off  (b) Bend (r) Release (v) Vibrato

(W|WW) Whole (H|HH) Half (Q|QQ) Quarter (E|EE) 8th (S|SS) 16th (T|TT) 32nd (X|XX) 64th

t: none none nonenone none none undefined nonenone undefined none undefined nonenone undefined none undefined undefined none none nonenone
E|----------------------------------------------------------------------------------------------
B|----------------------------------------------------------------------------------------------
G|----------------------------------------------------------------------------------------------
D|----7--------10--------9------------------7--------10--------9------------7--------10---------
A|--------------------------------10------------------------------------------------------------
E|----------------------------------------------------------------------------------------------


t: none none nonenone none none undefined nonenone undefined none undefined none nonenone none none undefined none none none none
E|-------------------------------------------------------------------------------------------------
B|-------------------------------------------------------------------------------------------------
G|-----------------------------------------------------------------9--------7----------------------
D|----9------------------7--------10--------9------------10--------------------------9-------------
A|-------------10----------------------------------------------------------------------------------
E|-------------------------------------------------------------------------------------------------


t: nonenone none none none none undefined none nonenone none none none none none none undefined nonenone none none
E|---------------------------------------------------------------------------------------------
B|---------------------------------------------------------------------------------------------
G|--------------9--------7----------------------9--------7---------------------------9---------
D|----10------------------------------10--------------------------9--------10------------------
A|---------------------------------------------------------------------------------------------
E|---------------------------------------------------------------------------------------------


t: none none none none none none none none none none none nonenone none none undefined none none none none none nonenone none
E|--------------------------------------------------------------------------------------
B|--------------------------------------------------------------------------------------
G|---7----------------------------------------------------------------------------------
D|----------------7------7------7------7---10------7------7------7------7---10----------
A|--------------------------------------------------------------------------------------
E|--------------------------------------------------------------------------------------


t: none none none none none none none nonenone none none none none none none undefined none nonenone none none none none none none undefined
E|----------------------------------------------------------------------------------------------
B|----------------------------------------------------------------------------------------------
G|----------------------------------------------------------------------------------------------
D|---9------9------9------9---12------7------7------7------7---10------7------7------7----------
A|----------------------------------------------------------------------------------------------
E|----------------------------------------------------------------------------------------------


t: none nonenone none none none none none none none none nonenone none none nonenone undefined nonenone none nonenone none nonenone none none none
E|------------------------------------------------------------------------------------------
B|------------------------------------------------------------------------------------------
G|--------------------------------------------------------------------------------9---------
D|---7---10------9------9------9------9---12---------10------10------10------10-------------
A|------------------------------------------------------------------------------------------
E|------------------------------------------------------------------------------------------


t: nonenone none nonenone none nonenone none nonenone none none none none none none none none none none none none
E|--------------------------------------------------------------------------
B|--------------------------------------------------------------------------
G|--------------------------------9----------------------------------7------
D|---10------10------10------10-------------9------9------9------9----------
A|--------------------------------------------------------------------------
E|--------------------------------------------------------------------------


t: nonenone none nonenone none nonenone none nonenone none none nonenone none nonenone none nonenone none nonenone none none
E|---------------------------------------------------------------------------
B|---------------------------------------------------------------------------
G|--------------------------------9-----------------------------------9------
D|---10------10------10------10----------10------10------10------10----------
A|---------------------------------------------------------------------------
E|---------------------------------------------------------------------------


t: none none none none none none none none
E|--------------------------------
B|--------------------------------
G|----------------------------7---
D|---9------9------9------9-------
A|--------------------------------
E|--------------------------------
http://www.guitartabcreator.com
Guitar Tab Creator is intended to store guitar tab created through the tool. It currently does not support in-line text editing. Any text you place in here will be lost. If you need to comment on your tab, please use the "Tab Notes" section located below.