Divenire Guitar Tabs [Step 3]

(/) Slide Up  (\) Slide Down  (h) Hammer On  (p) Pull Off  (b) Bend (r) Release (v) Vibrato


E|---------------------------------------------------------------
B|---------------------------------------------------------------
G|-------------9--------7-------------------------12--------7----
D|----7----------------------------------7-----------------------
A|---------------------------------------------------------------
E|---------------------------------------------------------------



E|-----------------------------------------------------------------------------------------------
B|-----------------------------------------------------------------------------------------------
G|-------------------------------------10----12----14----14----14----12----10----9----10----9----
D|----7--------10--------12----------------------------------------------------------------------
A|-----------------------------------------------------------------------------------------------
E|-----------------------------------------------------------------------------------------------



E|----------------------------------------------------------------------------------
B|----------------------------------------------------------------------------------
G|----------------------------------------------------------------------------------
D|--10----10----10----10----10----10----10--12--10--9--10--9------------7--9--------
A|----------------------------------------------------------------------------------
E|----------------------------------------------------------------------------------



E|--------------------------------------------------------------------------
B|--------------------------------------------------------------------------
G|--------------------------------------------------------------------------
D|--10----10----10--12--10--9--10----10----10----10--12--10--9--10--12------
A|--------------------------------------------------------------------------
E|--------------------------------------------------------------------------



E|--------------------------------------------------------------------------------
B|--------------------------------------------------------------------------------
G|----------------9----9----9--10--9------9----9----9----9--10--9------9----------
D|--10--12----------------------------12---------------------------12-----12------
A|--------------------------------------------------------------------------------
E|--------------------------------------------------------------------------------



E|----------------------------------------------------------------------------------
B|----------------------------------------------------------------------------------
G|----------------------------------------------------------------------------------
D|--7--9--------10----10----10--12--10--9--10----10----10----10--12--10--9--10--12--
A|----------------------------------------------------------------------------------
E|----------------------------------------------------------------------------------



E|--12--10------------12--10------------12--10------------12--10----------------
B|----------13--10------------13--10------------13----------------13------------
G|--------------------------------------------------12----------------12--------
D|------------------------------------------------------------------------------
A|------------------------------------------------------------------------------
E|------------------------------------------------------------------------------



E|--10--12--10------12--10--------
B|--------------13----------------
G|--------------------------------
D|--------------------------------
A|--------------------------------
E|--------------------------------



E|------------------------------------------------------------------------------------
B|--10--12----13--13----13--15--13--12--13--13----13----13--15--13--12--13--12--------
G|------------------------------------------------------------------------------------
D|------------------------------------------------------------------------------------
A|------------------------------------------------------------------------------------
E|------------------------------------------------------------------------------------



E|--10--12--10------------10--12--10------------10--12--10------------10--12--10----------
B|--------------13--10----------------13--10----------------13--------------------13------
G|--------------------------------------------------------------12--------------------12--
D|----------------------------------------------------------------------------------------
A|----------------------------------------------------------------------------------------
E|----------------------------------------------------------------------------------------



E|--10--12--10------12--10------------------
B|--------------13--------------------------
G|------------------------------------------
D|------------------------------------------
A|------------------------------------------
E|------------------------------------------



E|----------------------------------------------------------------------------------------
B|--10--12----13----13----13--15--13--12--13--13----13----13--15--13--12--13--15----------
G|----------------------------------------------------------------------------------------
D|----------------------------------------------------------------------------------------
A|----------------------------------------------------------------------------------------
E|----------------------------------------------------------------------------------------



E|--------17--17--17--15----------------------------------------------
B|------------------------15--15----17--18--17--13--15--17------------
G|--14----------------------------------------------------------------
D|--------------------------------------------------------------------
A|--------------------------------------------------------------------
E|--------------------------------------------------------------------



E|--------17--17--17--15------------------------------------------------------
B|------------------------15--15----17--18--17--15--17--18--17----------------
G|--14------------------------------------------------------------------------
D|----------------------------------------------------------------------------
A|----------------------------------------------------------------------------
E|----------------------------------------------------------------------------



E|--------17--20--20--19--19--17--17--15--15------------------------
B|--------------------------------------------17--17--13------------
G|--14----------------------------------------------------14--------
D|------------------------------------------------------------------
A|------------------------------------------------------------------
E|------------------------------------------------------------------



E|----------------------------------------------------------------------
B|----------12----13--13----13--15--13--12--13--12----12----10----------
G|--12--14--------------------------------------------------------------
D|----------------------------------------------------------------------
A|----------------------------------------------------------------------
E|----------------------------------------------------------------------



E|-----------------------------
B|-----------------------------
G|--7--------------------------
D|-----10--9----7--------------
A|-----------------------------
E|-----------------------------
http://www.guitartabcreator.com
Guitar Tab Creator is intended to store guitar tab created through the tool. It currently does not support in-line text editing. Any text you place in here will be lost. If you need to comment on your tab, please use the "Tab Notes" section located below.