Sie

(/) Slide Up  (\) Slide Down  (h) Hammer On  (p) Pull Off  (b) Bend (r) Release (v) Vibrato


E|-----------------------------------------------------0-----0--
B|--------5-----5-----------5-----5-----------5-----5-----5-----
G|-----5-----5-----5-----5-----5-----5-----5-----5--------------
D|--5-----------------5-----------------5-----------------------
A|--------------------------------------------------------------
E|--------------------------------------------------------------



E|----------------------------------------------------------------------------------
B|----------------------------------------------------------------------------------
G|----------------------------------------------------------------------------------
D|--6--6--6----------------------------------------------------------------6--6--8--
A|--6--6--6----------------------------------------------------------------6--6--8--
E|--6--6--6----6--8--6--8--6--8--6--8--6--8--6--8--6--8--6--8--6--8--6--8--6--6--8--



E|--------------------------------------------------------------------------------------------
B|--------------------------------------------------------------------------------------------
G|--------------------------------------------------------------------------------------------
D|--------------------------------------------------------------------------------------------
A|--2--4--3--2--3--2--4--3--2--3--2--4--3--2--3--2--4--3--2--3--2--4--3--2--3--2--4--3--2--3--
E|--------------------------------------------------------------------------------------------



E|----------------------------------------------------------------------------------
B|----------------------------------------------------------------------------------
G|----------------------------------------------------------------------------------
D|----------------------------1--1--3--------------------------------------1--1--3--
A|----------------------------1--1--3--------------------------------------1--1--3--
E|----------------------------1--1--3--------------------------------------1--1--3--



E|-----------------------
B|-----------------------
G|-----------------------
D|-----------------------
A|--2--2----2--2--2--12--
E|--2--2----2--2--2--12--



E|-----------------0-----
B|--------------0--------
G|-----------0-----------
D|--------0--------------
A|-----0-----------------
E|--0--------------------
http://www.guitartabcreator.com
Guitar Tab Creator is intended to store guitar tab created through the tool. It currently does not support in-line text editing. Any text you place in here will be lost. If you need to comment on your tab, please use the "Tab Notes" section located below.