Drinking Champaigne

(/) Slide Up  (\) Slide Down  (h) Hammer On  (p) Pull Off  (b) Bend (r) Release (v) Vibrato


E|----------------------|----------------------------|-------------------|-----------------------------
B|----------------------|--14--14--12--10--10--9--8--|--7--7----------7--|--12--12--10--9--------------
G|----------13--14--16--|--14--14--13--11--11--9--8--|--7-----7-------7--|--13--13--11--9--11--9-------
D|--14--16--------------|----------------------------|-----------7----6--|-----------------------------
A|----------------------|----------------------------|-------------------|-----------------------------
E|----------------------|----------------------------|-------------------|-----------------------------



E|----------------|----------------------------
B|----------------|--2--3--4--5--5--4----3--2--
G|----------------|--2--4--5--6--6--5----4--2--
D|--12------------|-------------------------2--
A|------11--12----|----------------------------
E|----------------|----------------------------
http://www.guitartabcreator.com
Guitar Tab Creator is intended to store guitar tab created through the tool. It currently does not support in-line text editing. Any text you place in here will be lost. If you need to comment on your tab, please use the "Tab Notes" section located below.