Star Spangled Banner

(/) Slide Up  (\) Slide Down  (h) Hammer On  (p) Pull Off  (b) Bend (r) Release (v) Vibrato


E|-----------------1--5--3--1-----------------5--3--1--0-----0--1--1-----------
B|--1-----------1-----------------0--1--1--1--------------3-----------1--------
G|-----2-----2-----------------2-----------------------------------------2-----
D|--------3-----------------------------------------------------------------3--
A|-----------------------------------------------------------------------------
E|-----------------------------------------------------------------------------



E|-----------------1--5--3--1-----------------5--3--1--0-----0--1--1-----------
B|--1-----------1-----------------0--1--1--1--------------3-----------1--------
G|-----2-----2-----------------2-----------------------------------------2-----
D|--------3-----------------------------------------------------------------3--
A|-----------------------------------------------------------------------------
E|-----------------------------------------------------------------------------



E|--5--5--5--6--8--8--6--5--3--3--5--6--6--6--5--3--1--0-----0--1--1-----------
B|--------------------------------------------------------3--------------0--3--
G|--------------------------------------------------------------------2--------
D|-----------------------------------------------------------------------------
A|-----------------------------------------------------------------------------
E|-----------------------------------------------------------------------------



E|--------1--1--1--0--------3--5--6--6--5--3--1--1--0--
B|--1--1--------------3--3-----------------------------
G|-----------------------------------------------------
D|-----------------------------------------------------
A|-----------------------------------------------------
E|-----------------------------------------------------



E|--------1--3--5--6--8--8--1--3--5--6--3--1-----------
B|--1--1--------------------------------------1--------
G|-----------------------------------------------2-----
D|--------------------------------------------------3--
A|-----------------------------------------------------
E|-----------------------------------------------------
http://www.guitartabcreator.com
Guitar Tab Creator is intended to store guitar tab created through the tool. It currently does not support in-line text editing. Any text you place in here will be lost. If you need to comment on your tab, please use the "Tab Notes" section located below.