Write me (harmonica and lead guitar parts)

(/) Slide Up  (\) Slide Down  (h) Hammer On  (p) Pull Off  (b) Bend (r) Release (v) Vibrato
E|------------------|------------------------|----------------------------------|--
B|------------------|--11----11----11----11--|--11------11------11--11--11------|--
G|--------------12--|------------------------|------12------12--------------12--|--
D|------------------|------------------------|----------------------------------|--
A|------------------|------------------------|----------------------------------|--
E|------------------|------------------------|----------------------------------|--



E|----------------------------|--------------------------------------|--
B|--11----11----11------11----|--11------11------11--11--11--11------|--
G|------------------12--------|------12------12------------------12--|--
D|----------------------------|--------------------------------------|--
A|----------------------------|--------------------------------------|--
E|----------------------------|--------------------------------------|--



E|-------------------------------|--13p10h13p10h13p10--------------3--|--
B|--11----11----11--------13b15--|---------------------12----------3--|--
G|------------------12-----------|-------------------------12---------|--
D|-------------------------------|------------------------------------|--
A|-------------------------------|------------------------------------|--
E|-------------------------------|------------------------------------|--



E|--3--3--3----3--3--3--3--|----3--3----3--------|--
B|--3--3--5----3--3--5--3--|----3--5----3--------|--
G|-------------------------|---------------------|--
D|-------------------------|---------------------|--
A|-------------------------|---------------------|--
E|-------------------------|---------------------|--



E|--------------------------|--------------------------|---------------------------|--
B|-------8------------------|--9p5-------5-------------|-------7-------------------|--
G|--7b9-----7b9v------------|-------7b8-----5--7p5-----|--7---------5-----7b9r7p5--|--
D|--------------------------|-----------------------7--|---------------7-----------|--
A|--------------------------|--------------------------|---------------------------|--
E|--------------------------|--------------------------|---------------------------|--



E|---------------------------------|-----------------------|-------------------------------|--
B|---------------------------------|-----------------------|-------------------------------|--
G|--7p5-----5----------------------|------------5----------|--5-------7h9r7p5--7--7--5--6--|--
D|-------7-----7p5-----------------|---------5----------5--|-----7p5-----------------------|--
A|------------------7--6--5--3-----|----5/7--------5/7-----|-------------------------------|--
E|------------------------------5--|-----------------------|-------------------------------|--



E|-------------10\9------9-----|-------------------|--
B|-------------------10--------|----8--10----------|--
G|--7/9--9--9---------------9--|-------------------|--
D|-----------------------------|-------------------|--
A|-----------------------------|-------------------|--
E|-----------------------------|-------------------|--



E|-------------8----|--5---------5----8-------|------------------------|--
B|----------5--7----|--5---------5----7----5--|-----5------------8--8--|--
G|------------------|-----7b9-----------------|--7-----5-------7/9--9--|--
D|------------------|-------------------------|-----------7------------|--
A|------------------|-------------------------|------------------------|--
E|------------------|-------------------------|------------------------|--



E|--------------------------|----------------------|-----------------------------|--
B|--8--8--8--8----7----5----|-------------------5--|-------5------------------5--|--
G|--9--9--9--9----7----5----|------5-------7b9-----|--7b9-----5-------7--7b9-----|--
D|--------------------------|---------5------------|-------------7---------------|--
A|--------------------------|----------------------|-----------------------------|--
E|--------------------------|----------------------|-----------------------------|--



E|--------------5------|----5-------------
B|--------------5------|----5--------8-7--
G|--5------------------|-------------8r7--
D|-----7---------------|------------------
A|---------------------|------------------
E|---------------------|------------------



E|-------------------------|----------------------------------------13--------------
B|----------------------6--|--8v---------------------------8--8-------------14------
G|--6----7----8----9-------|--------------------------7/9--------9------------------
D|-------------------------|------------5/7--5-----5--------------------11------10--
A|-------------------------|--------------------7-----------------------------------
E|-------------------------|--------------------------------------------------------



E|------------------------------|--13--------------------------|-------------------------------|--
B|---------------------6--6-----|----------12------11------10--|-------------------------------|--
G|-------3-----3--5/7--------7--|------------------------------|--3h4-----5--3-----------------|--
D|--3/5-----5-------------------|------12------11------10------|-------5--------5--3-----3/5v--|--
A|------------------------------|------------------------------|----------------------5--------|--
E|------------------------------|------------------------------|-------------------------------|--
http://www.guitartabcreator.com
Guitar Tab Creator is intended to store guitar tab created through the tool. It currently does not support in-line text editing. Any text you place in here will be lost. If you need to comment on your tab, please use the "Tab Notes" section located below.