Write me (harmonica and lead guitar)

(/) Slide Up  (\) Slide Down  (h) Hammer On  (p) Pull Off  (b) Bend (r) Release (v) Vibrato
E|------------------|--------------------------|----------------------------------|--
B|------------------|--11----11----11----11----|--11------11------11--11--11------|--
G|--------------12--|--------------------------|------12------12--------------12--|--
D|------------------|--------------------------|----------------------------------|--
A|------------------|--------------------------|----------------------------------|--
E|------------------|--------------------------|----------------------------------|--



E|----------------------------|--------------------------------------|--
B|--11----11----11------11----|--11------11------11--11------11------|--
G|------------------12--------|------12------12----------12------12--|--
D|----------------------------|--------------------------------------|--
A|----------------------------|--------------------------------------|--
E|----------------------------|--------------------------------------|--



E|-------------------------------|----13p10h13p10h13p10h13------------|--
B|--11----11----11--------13b15--|--------------------------12--------|--
G|------------------12-----------|------------------------------12----|--
D|-------------------------------|------------------------------------|--
A|-------------------------------|------------------------------------|--
E|-------------------------------|------------------------------------|--



E|--3--3--3----3--3--3--3--|----3--3--3--------|-----
B|--3--3--5----3--3--5--3--|----3--5--3--------|-----
G|-------------------------|-------------------|-----
D|-------------------------|-------------------|-----
A|-------------------------|-------------------|-----
E|-------------------------|-------------------|-----
http://www.guitartabcreator.com
Guitar Tab Creator is intended to store guitar tab created through the tool. It currently does not support in-line text editing. Any text you place in here will be lost. If you need to comment on your tab, please use the "Tab Notes" section located below.