Vocal-190 transcribed for lead guitar

(/) Slide Up  (\) Slide Down  (h) Hammer On  (p) Pull Off  (b) Bend (r) Release (v) Vibrato


E|----------------------|------------------------|-----------------------|----------------|--
B|----------------------|------------------------|-----------------------|----------------|--
G|--0----0----0---------|------------------------|-----------------------|----------------|--
D|-----------------2----|--2--2----2----0--2--0--|--2----2----2--0-------|----------------|--
A|----------------------|------------------------|--------------------2--|----------------|--
E|----------------------|------------------------|-----------------------|----------------|--



E|-----------------------|------------------------|----------------|-----------------|--
B|-----------------------|------------------------|----------------|-----------------|--
G|-----0--0--0-----------|------------------------|----------------|--4--------------|--
D|--4-------------2------|--2--2--2--2------2--2--|--4------4------|-----------------|--
A|-----------------------|------------------------|----------------|-----------------|--
E|-----------------------|------------------------|----------------|-----------------|--



E|-----------------------|--------------------|-----------------|----------------|--
B|-----------------------|--------------------|-----------------|----------------|--
G|--5----5--5----5--5----|--4-----------------|-----------------|----------------|--
D|-----------------------|-----4--4----4------|--2--------------|----------------|--
A|-----------------------|--------------------|-----------------|----------------|--
E|-----------------------|--------------------|-----------------|----------------|--



E|---------------------|-------------------|-----------------|-------------------|--
B|---------------------|-------------------|-----------------|-------------------|--
G|-----5----5----5--5--|--4---------4------|--2--------------|--4----------------|--
D|--2------------------|---------4---------|-----------------|-------------------|--
A|---------------------|-------------------|-----------------|-------------------|--
E|---------------------|-------------------|-----------------|-------------------|--
http://www.guitartabcreator.com
Guitar Tab Creator is intended to store guitar tab created through the tool. It currently does not support in-line text editing. Any text you place in here will be lost. If you need to comment on your tab, please use the "Tab Notes" section located below.