Sweet Emotion -Texas Jam '78

(/) Slide Up  (\) Slide Down  (h) Hammer On  (p) Pull Off  (b) Bend (r) Release (v) Vibrato
E|-------------------|----------------|-----------------|-----------------|-------------------|--
B|-------------------|----------------|-----------------|-----------------|-------------------|--
G|------------9------|--9----------6--|--7--------------|--9--------------|--9----------------|--
D|------------7------|--7----------7--|--7--------------|--7--------------|--7----------------|--
A|-------------------|-------------0--|--0--------------|-----------------|-------------------|--
E|-------------------|----------------|-----------------|-----------------|-------------------|--



E|-----------------|---------------|-------------------|--
B|-----------------|---------------|-------------------|--
G|--------------6--|--7------------|--6----------------|--
D|--------------7--|--7------------|--7----------------|--
A|--------------0--|--0------------|--0----------------|--
E|-----------------|---------------|-------------------|--



E|--
B|--
G|--
D|--
A|--
E|--



E|-------------------|----------------------------|------------------------------------------
B|--7b9--------r7p5--|--7b10----------------------|--5h8p5-----5h8p5-----5h8p5-----5h8p5-----
G|-------------------|-----------------5--7--7b8--|---------7---------7---------7------------
D|-------------------|------------5/7-------------|------------------------------------------
A|-------------------|----------------------------|------------------------------------------
E|-------------------|----------------------------|------------------------------------------



E|---------|--5-------5------------------------------|-----------------------------------------------
B|--5h8p5--|-----8p5-----8p5--5----------------------|------------------------13--15b17--15--13------
G|---------|---------------------7--5h7p5-----5h7p5--|---------12------12p14---------------------14--
D|---------|-------------------------------7---------|--12/14------14--------------------------------
A|---------|-----------------------------------------|-----------------------------------------------
E|---------|-----------------------------------------|-----------------------------------------------



E|-----------------15h17--15------15--15b17--15------|--15----------------------------------------
B|--13------13/15-------------17-----------------17--|------17--16--15--13--16p15p13------13------
G|------14-------------------------------------------|--------------------------------14------14--
D|---------------------------------------------------|--------------------------------------------
A|---------------------------------------------------|--------------------------------------------
E|---------------------------------------------------|--------------------------------------------



E|---------------------15--------|------------------|---------------------|--
B|---------------------15b17r15--|--\---------------|---------------------|--
G|--12h14--12------12------------|-----------5------|---------------------|--
D|-------------14----------------|-----------5------|---------------------|--
A|-------------------------------|------------------|---------------------|--
E|-------------------------------|------------------|--2b3r2------b3r2----|--



E|--
B|--
G|--
D|--
A|--
E|--



E|--------------------|-----------12------------|----12------------12------------|--
B|--------------------|---------------15p12h15--|--------15p12h15------15p12h15--|--
G|--------14b16r14----|----14b16----------------|--------------------------------|--
D|--------------------|-------------------------|--------------------------------|--
A|--------------------|-------------------------|--------------------------------|--
E|--------------------|-------------------------|--------------------------------|--



E|--12----------------------12---------------------|----------------------------|--
B|------15p12h15p12--15b17------15p12h15p12h15p12--|--15p12h15p12--12--15b17----|--
G|-------------------------------------------------|----------------------------|--
D|-------------------------------------------------|----------------------------|--
A|-------------------------------------------------|----------------------------|--
E|-------------------------------------------------|----------------------------|--



E|-------------------------------------------------------------------------------------|--
B|--15p12h15p12------------15p12------12-----------------------------------------------|--
G|---------------15p14p12---------15------14b16r14p12------14p12------12h14p12---------|--
D|-----------------------------------------------------14---------14------------14p12--|--
A|-------------------------------------------------------------------------------------|--
E|-------------------------------------------------------------------------------------|--



E|------------------------------------------|-------------12--------------------------------------
B|------------------------------------------|---------12------12-------------------12--15p12------
G|-------------------------12---------------|--14b16--------------15p14p12--14b16-------------14--
D|------14--12------12h14--------14p12------|-----------------------------------------------------
A|--14----------14----------------------14--|-----------------------------------------------------
E|------------------------------------------|-----------------------------------------------------



E|---------------------|------------------------------------------------|--
B|---------------------|------------------------------------------------|--
G|--14b16--14--12------|--14--12------12--14b16r14b16r14b16r14--12------|--
D|-----------------14--|----------14--------------------------------14--|--
A|---------------------|------------------------------------------------|--
E|---------------------|------------------------------------------------|--



E|--
B|--
G|--
D|--
A|--
E|--



E|----------------------------|----------------------------|-------------------------3-----|--
B|-------3--3--3--3-----3--3--|----------3--3--------------|-------3-----3-----5--5-----5--|--
G|--2/4--4--4--4-----4--4--4--|--2/4--4--4--4----2b4r2-----|--2/4-----4-----4--6--6--------|--
D|----------------------------|-------------------------2--|-------------------------------|--
A|----------------------------|----------------------------|-------------------------------|--
E|----------------------------|----------------------------|-------------------------------|--



E|----------------------|--16--16--16--16--16--16--16--16--------12--12-----|--
B|--2h3p2---------------|--15--15--15--15--15--15--15--15----12------15b17--|--
G|---------3/4--0h1-----|---------------------------------------------------|--
D|-------------------2--|---------------------------------------------------|--
A|----------------------|---------------------------------------------------|--
E|----------------------|---------------------------------------------------|--



E|------15--16--16--16--16--16--14b15----|--16--16--16--16--16--16--16----17--17--17--17--17----|--
B|--14------15--15--15--15--15-----------|--15--15--15--15--15--15--15----16--16--16--16--16----|--
G|---------------------------------------|------------------------------------------------------|--
D|---------------------------------------|------------------------------------------------------|--
A|---------------------------------------|------------------------------------------------------|--
E|---------------------------------------|------------------------------------------------------|--



E|--18--17b19------------|----------------|---------------|----|---------------|-----
B|--17-------------------|----------------|--8--7h8p7-----|----|--10-----------|-----
G|-----------------------|----------------|------------9--|----|--12b14--------|-----
D|-----------------------|----------------|---------------|----|---------------|-----
A|-----------------------|----------------|---------------|----|---------------|-----
E|-----------------------|----------------|---------------|----|---------------|-----



E|------------------|------------------------------|--12-------10-----|------------------------|--
B|--14b17----15-----|--12--------------------------|--15b17----13b15--|--12--------------------|--
G|-----------17b19--|--14b16--12-------------------|------------------|--14b16--12--0----------|--
D|------------------|-------------14--11b12--------|------------------|------------------------|--
A|------------------|------------------------------|------------------|------------------------|--
E|------------------|------------------------------|------------------|------------------------|--



E|--12-------10-----|-----------------------------|--14b16------------------------|--
B|--15b17----13b15--|--12-------------------------|-----------14b15r14b15r14--12--|--
G|------------------|--14b16--12------------------|-------------------------------|--
D|------------------|-------------14--12--11------|-------------------------------|--
A|------------------|-----------------------------|-------------------------------|--
E|------------------|-----------------------------|-------------------------------|--
http://www.guitartabcreator.com
Guitar Tab Creator is intended to store guitar tab created through the tool. It currently does not support in-line text editing. Any text you place in here will be lost. If you need to comment on your tab, please use the "Tab Notes" section located below.