Sweet Emotion - Aerosmith & Kid Rock

(/) Slide Up  (\) Slide Down  (h) Hammer On  (p) Pull Off  (b) Bend (r) Release (v) Vibrato
E|------------------|-------------------|---------------|--15v------|----------|--15------------|--
B|------------------|-------------------|---------------|-----------|----------|----------------|--
G|------------2--2--|------2----2----2--|--2------------|-----------|----------|------------14--|--
D|------------2--2--|------2----2----2--|--2------------|-----------|----------|----------------|--
A|------------------|-------------------|---------------|-----------|----------|----------------|--
E|------------------|-------------------|---------------|-----------|----------|----------------|--



E|----------------|--------------|--------------|------------------|---------------------|-------
B|----------------|--------------|--------------|------------------|---------------------|-------
G|--14\0----------|--------------|--------------|------------------|------------------6--|----7--
D|----------------|--------------|--------------|--7----7----------|---------------------|-------
A|----------------|--------------|--------------|------------------|---------------------|-------
E|----------------|--------------|--------------|------------------|---------------------|-------



E|------------|-------------|------------------|-----------------|-------------------------|--
B|------------|-------------|------------------|-----------------|-------------------------|--
G|------------|--6----------|--2----2----------|--------------2--|--2----------------------|--
D|------------|-------------|--4----4----------|-----------------|---------2---------------|--
A|------------|-------------|------------------|-----------------|------------0------------|--
E|------------|-------------|------------------|-----------------|-------------------------|--



E|-------------------------------------|-----------------|---------------|-------------------|--
B|-------------------------------------|-----------------|---------------|-------------------|--
G|------6h7p6h7p6h7p6h7p6h7p6h7p6h7----|--2--------------|------------2--|--2----------------|--
D|-------------------------------------|--2--------------|------------2--|--2----------------|--
A|-------------------------------------|-----------------|---------------|-------------------|--
E|-------------------------------------|-----------------|---------------|-------------------|--



E|-------------------|--
B|-------------------|--
G|--2----------------|--
D|--2----------------|--
A|-------------------|--
E|-------------------|--



E|--
B|--
G|--
D|--
A|--
E|--



E|--------------------------------------------|----------
B|--------------------------------------------|----------
G|-4b6r4p2-4-4-2-5-5-2-5-5p2p0--2-4b6r4p2-4-2-|----------
D|--------------------------------------------|----------
A|--------------------------------------------|----------
E|--------------------------------------------|----------



E|------8-----|---------------------------------|----------8p5-----|--10b12--8-----8--------8------|--
B|---------5--|--8b10r8-------------------------|---------------5--|---------------8--8h10-----10--|--
G|------------|----------5--5-------------------|------------------|------------9------------------|--
D|------------|----------------7p5h7---------7--|------------------|-------------------------------|--
A|------------|-----------------------6p5p0-----|------------------|-------------------------------|--
E|------------|---------------------------------|------------------|-------------------------------|--



E|--------------|--12---------------------------|--
B|--------------|--------5--7--5--5--7----------|--
G|--------------|--------5--7--5--5--7----------|--
D|--------------|-------------------------------|--
A|--------------|-------------------------------|--
E|--------------|-------------------------------|--



E|--
B|--
G|--
D|--
A|--
E|--



E|----------------------|-------------------------------|---------0-----------------------|--
B|----------------------|--8-9--9-----8-9--9-------8-9--|------------3--0-----------------|--
G|--------------11--11--|-------------------------------|--2b4-------------2b3r2p0--------|--
D|----------------------|--8/9--9--9--8/9--9--9p8--8/9--|---------------------------2--0--|--
A|----------------------|-------------------------------|---------------------------------|--
E|----------------------|-------------------------------|---------------------------------|--



E|---------------12-------------------------------|--------------------|--
B|----15b17----------15p12------12----------------|--------------------|--
G|--------------------------14------15--14--12----|------2b4r2---------|--
D|------------------------------------------------|---------------0h2--|--
A|------------------------------------------------|--------------------|--
E|------------------------------------------------|--------------------|--



E|-----------------------------------------------12---------|--
B|--15b17r15p12--------15p12------15p12------12-------------|--
G|---------------14-----------14---------14----------14b16--|--
D|----------------------------------------------------------|--
A|----------------------------------------------------------|--
E|----------------------------------------------------------|--



E|--------------------------------------12---------|---------------12------15b17-----------15------|--
B|----12-------------12-------------12------15b17--|-----------12------------------------------12--|--
G|--------14p12------12------14b16-----------------|----14b16----------12---------0h12h14------14--|--
D|---------------14------12------------------------|-----------------------------------------------|--
A|-------------------------------------------------|-----------------------------------------------|--
E|-------------------------------------------------|-----------------------------------------------|--



E|--15----------------------------------------|--------------------------|-----------
B|--------------------------------------------|--------------------------|-----------
G|------12--12--------------------------------|-----------------------2--|-----------
D|--------------14p12--14--14p12------12------|-----5-----------------2--|-----------
A|--------------------------------14------14--|--7-------7------------0--|-----------
E|--------------------------------------------|---------------0--3-------|--0--------
http://www.guitartabcreator.com
Guitar Tab Creator is intended to store guitar tab created through the tool. It currently does not support in-line text editing. Any text you place in here will be lost. If you need to comment on your tab, please use the "Tab Notes" section located below.