Sweet Emotion

(/) Slide Up  (\) Slide Down  (h) Hammer On  (p) Pull Off  (b) Bend (r) Release (v) Vibrato
E|----------5---------------5---------------------------------|--
B|-------5-----8p5-------5-----8p5h8p5h8p5h8p5h8p5h8p5--8b10--|--
G|--7b9-------------7b9---------------------------------------|--
D|------------------------------------------------------------|--
A|------------------------------------------------------------|--
E|------------------------------------------------------------|--



E|--
B|--
G|--
D|--
A|--
E|--



E|-------------17------14--------------------------------------------|----------------------------
B|--14h15--14------------------17p14--14--14--15--14-----------------|------15p14------17p14------
G|-----------------14------14-----------------14--14--16p14------14--|--14------------------------
D|-----------------------------------------------------------14------|--14---------14---------14--
A|-------------------------------------------------------------------|----------------------------
E|-------------------------------------------------------------------|----------------------------



E|--17-----------------------------------------------------------------------------------|--
B|------17p14--17p14--14--17p14--14--15p14----------------------------------------15p14--|--
G|----------------------------------------------16p14------14h16-----------14h16---------|--
D|------------------------------------------14---------14---------16p14------------------|--
A|---------------------------------------------------------------------------------------|--
E|---------------------------------------------------------------------------------------|--



E|----------------------------------17--------------------------------------------------
B|--15p14h15--15p14--17--17p14--14------14--14--17p14--14--17p14--14--14--15p14---------
G|--------------------------------------------------------------------14---------14-----
D|--------------------------------------------------------------------------------------
A|--------------------------------------------------------------------------------------
E|--------------------------------------------------------------------------------------



E|----------------------------------------------------------------------------|--
B|--14--------14--------------14--------------14--------------14--------------|--
G|--14--------14--------------14--------------14--------------14--------------|--
D|--14h16p14--14h16p14h16p14--14h16p14h16p14--14h16p14h16p14--14h16p14h16p14--|--
A|----------------------------------------------------------------------------|--
E|----------------------------------------------------------------------------|--



E|----------------------------------------------------------------------------------|--
B|--15p14------15p14------15p14------15p14------15p14------15p14---------15p14------|--
G|----------------------------------------------------------------------------------|--
D|---------14---------14---------14---------14---------14---------14------------14--|--
A|----------------------------------------------------------------------------------|--
E|----------------------------------------------------------------------------------|--



E|------------------------17------------------------------------------------------|--
B|--15p14------17p14----------17--14--17p14------17p14------14----------------14--|--
G|---------14---------14---------------------14---------14--14--14h16p14------14--|--
D|----------------------------------------------------------14------------16--14--|--
A|--------------------------------------------------------------------------------|--
E|--------------------------------------------------------------------------------|--



E|--------------------------------|--------------------------------------------------------|--
B|--14--------14------------------|--15p14------14----------------------------------17p14--|--
G|--14--------14------------------|---------14------14--14h16p14------14--14h16p14---------|--
D|--14h16p14--14--14h16p14--------|-------------------------------16-----------------------|--
A|--------------------------------|--------------------------------------------------------|--
E|--------------------------------|--------------------------------------------------------|--



E|--17p14---------------------------------------------------|-------------------------------
B|---------14--17p14--14--15p14-----------------------------|--15p14--15--15p14--17p14--14--
G|-----------------------------------14--16p14------14--14--|-------------------------------
D|-------------------------------14-------------14----------|-------------------------------
A|----------------------------------------------------------|-------------------------------
E|----------------------------------------------------------|-------------------------------



E|--17p14--------------------------------------------------------------------------------|--
B|-------------14--15p14------14------14------14-----------------------------------------|--
G|---------14--14---------14--14--14------14------14----------------------16p14------14--|--
D|----------------------------------------------------14--14h16p14h16p14---------14------|--
A|---------------------------------------------------------------------------------------|--
E|---------------------------------------------------------------------------------------|--



E|----------------------------------------------------------------------------------------------|--
B|--14--------14----------15p14------15p14------14--17p14--14--17p14--14--17p14------17p14------|--
G|--14--------14------14--------------------14-----------------------------------17---------17--|--
D|--14h16p14--14--14-------------14-------------------------------------------------------------|--
A|----------------------------------------------------------------------------------------------|--
E|----------------------------------------------------------------------------------------------|--



E|--------------------------------------------------------------------------------------------------
B|--14--17p14------17p14------17p14------17p14------17p14--15--15p14------14------------------------
G|--14---------14---------14---------14---------14--------------------14------16p14------14---------
D|--14-------------------------------------------------------------------------------14------16p14--
A|--------------------------------------------------------------------------------------------------
E|--------------------------------------------------------------------------------------------------



E|-------------------------------------------------17-----------------------------------------------------
B|--14---------------14--15p14------14--17p14--14------17p14--17p14--14--15p14----------------------------
G|--14--------16p14--14-------------------------------------------------------------16p14------16p14------
D|--14h16p14---------14---------14----------------------------------------------14---------14---------14--
A|--------------------------------------------------------------------------------------------------------
E|--------------------------------------------------------------------------------------------------------



E|-------------------------------------------------------------------|--
B|-------------------------------------------------------------------|--
G|--6/7--7p6-----7p6-----6h7h9p6-----7p6-----6h7p6-----7p6-----6-----|--
D|------------0-------7-----------7-------7---------7-------7-----7--|--
A|-------------------------------------------------------------------|--
E|-------------------------------------------------------------------|--



E|--
B|--
G|--
D|--
A|--
E|--



E|---------|-------------12--|-----------12--15b16--|--12------15p12------12-----------------------------------
B|---------|------10/12------|--15b17---------------|------15---------15------15b17r15--12--15p12------12--15--
G|--2b4----|-----------------|----------------------|----------------------------------------------14----------
D|---------|-----------------|----------------------|----------------------------------------------------------
A|---------|-----------------|----------------------|----------------------------------------------------------
E|---------|-----------------|----------------------|----------------------------------------------------------



E|----------------------------|------12---------------------------------|--12-------------------------------
B|--15p12------12-------------|--12------15b17--15p12------12--15b17----|------15p12------12h14p12------14--
G|---------14------12--14b16--|------------------------14---------------|-------------14------------14------
D|----------------------------|-----------------------------------------|-----------------------------------
A|----------------------------|-----------------------------------------|-----------------------------------
E|----------------------------|-----------------------------------------|-----------------------------------



E|-----------------------------------------|--------------------------------------|--
B|-----------------------------------------|----------12-----12-----12-----12-----|--
G|--14b16r14p12------14b16r14------12--12--|----------14b16--14b16--14b16--14b16--|--
D|---------------14------------14----------|--14----------------------------------|--
A|-----------------------------------------|--------------------------------------|--
E|-----------------------------------------|--------------------------------------|--



E|----------------------------------------------------------|--------------------|--
B|------------------------------------------------------15--|--------------------|--
G|--14b16r14p12------14p12------12--------12h14p12----------|------------14------|--
D|---------------14---------14------14--------------14------|--------------------|--
A|----------------------------------------------------------|--------------------|--
E|----------------------------------------------------------|--------------------|--



E|---------------------------------------------------------------------|--
B|--15-----15--15--15--15--15--15--15--15--15--15--15--15--15--15--15--|--
G|--14b16--16--16--16--16--16--16--16--16--16--16--16--16--16--16--16--|--
D|---------------------------------------------------------------------|--
A|---------------------------------------------------------------------|--
E|---------------------------------------------------------------------|--



E|-----------------------------------------------------------------|-----
B|--15-----15--15--15--15--15--15--15--15--15--15--15--15--15--15--|-----
G|--14b16--16--16--16--16--16--16--16--16--16--16--16--16--16--16--|-----
D|-----------------------------------------------------------------|-----
A|-----------------------------------------------------------------|-----
E|-----------------------------------------------------------------|-----



E|-------------------------------------------------|------12---------|--
B|--9------9------9------9------9------9-----------|------15b17------|--
G|--11b13--11b13--11b13--11b13--11b13--11b13--9----|-----------------|--
D|-------------------------------------------------|-----------------|--
A|-------------------------------------------------|-----------------|--
E|-------------------------------------------------|-----------------|--



E|--15p12------15p12h15p12------15p12h15------15p12h15------|--15p12------12--15p12------12--
B|---------15---------------15------------15------------15--|---------15-------------15------
G|----------------------------------------------------------|--------------------------------
D|----------------------------------------------------------|--------------------------------
A|----------------------------------------------------------|--------------------------------
E|----------------------------------------------------------|--------------------------------



E|--15p12------15p12------15p12------12----|--15b17r15--12------12-------------------|--
B|---------15---------15---------15--------|----------------15------15---------------|--
G|-----------------------------------------|------------------------------14b16------|--
D|-----------------------------------------|-----------------------------------------|--
A|-----------------------------------------|-----------------------------------------|--
E|-----------------------------------------|-----------------------------------------|--



E|----------|----------------|--------|--------------|----------|----------|------|----------|-----
B|----------|----------------|--------|--------------|----------|----------|------|----------|-----
G|----------|--12------------|--------|--12----------|----------|--12------|------|--12------|-----
D|----------|------14--------|--------|------14------|----------|------14--|------|------14--|-----
A|----------|----------------|--------|--------------|----------|----------|------|----------|-----
E|----------|----------------|--------|--------------|----------|----------|------|----------|-----



E|----------------------------------------|----------------------------------|--
B|--15b17--17r15p12--14--14b15--15r14p12--|----------------------------------|--
G|----------------------------------------|--14b16--12b14--------------------|--
D|----------------------------------------|----------------14--12--11--------|--
A|----------------------------------------|----------------------------14----|--
E|----------------------------------------|----------------------------------|--



E|------------------------------------|-------------------------------------|--
B|--15b17--17r15p12--14b15--15r14p12--|-------------------------------------|--
G|------------------------------------|--14b16--12----------14b16--14b16----|--
D|------------------------------------|-------------14--12------------------|--
A|------------------------------------|-------------------------------------|--
E|------------------------------------|-------------------------------------|--



E|--
B|--
G|--
D|--
A|--
E|--
http://www.guitartabcreator.com
Guitar Tab Creator is intended to store guitar tab created through the tool. It currently does not support in-line text editing. Any text you place in here will be lost. If you need to comment on your tab, please use the "Tab Notes" section located below.