Somebody (lead guitar)

(/) Slide Up  (\) Slide Down  (h) Hammer On  (p) Pull Off  (b) Bend (r) Release (v) Vibrato
E|-----------------------------|------------------------------|-----------------------|--
B|-----------------------------|------------------------------|--------------8b9------|--
G|--11b13r11p9h11--11b13r11----|--9------9----9\7-------------|---------7h9-----------|--
D|-----------------------------|-----11--------------7h9p7\6--|--6/7h9----------------|--
A|-----------------------------|------------------------------|-----------------------|--
E|-----------------------------|------------------------------|-----------------------|--



E|---------------------|--
B|----------------8b9--|--
G|----9--------9-------|--
D|---------------------|--
A|---------------------|--
E|---------------------|--



E|-----------------12--------------------|--------------------------|----------------------------|--
B|--12--15b17----------15--12h15p12------|---------15---------------|-----------------12--15b17--|--
G|-----------------------------------14--|--14b16------14b16r14p12--|------12--14b16-------------|--
D|---------------------------------------|--------------------------|--14------------------------|--
A|---------------------------------------|--------------------------|----------------------------|--
E|---------------------------------------|--------------------------|----------------------------|--



E|--12------------------------------|--
B|------15--12h15p12----------------|--
G|--------------------14--13--------|--
D|----------------------------------|--
A|----------------------------------|--
E|----------------------------------|--



E|-------------------|-------------------|--------------------------|--------------------------|--------
B|--------------7b9--|------7b9----------|---------5--7p5-----5--5--|--7b9r7p5-----5----10b12--|--------
G|-------------------|-------------------|----4/6----------6--------|-----------6--------------|--------
D|-------------------|-------------------|--------------------------|--------------------------|--------
A|-------------------|-------------------|--------------------------|--------------------------|--------
E|-------------------|-------------------|--------------------------|--------------------------|--------



E|--10-----------------------|--
B|------12r10p8--------------|--
G|---------------------------|--
D|---------------------------|--
A|---------------------------|--
E|---------------------------|--



E|-----------------|---------------------------|-----------------------------------|---------
B|-----------------|---------------------------|----3-------5/6/7----------5-------|--7b8r7--
G|----2b4--------2b|--4r2--0h2p0-------0--2/4--|-------4------------------------6--|---------
D|-----------------|--------------2------------|-----------------------------------|---------
A|-----------------|---------------------------|-----------------------------------|---------
E|-----------------|---------------------------|-----------------------------------|---------



E|----15b17------------15--|----12-------------------------|-------------------------------12------|--
B|-------------------------|--------15--12p15h12-----------|--15-------------------------------15--|--
G|-------------------------|----------------------14b16----|------16r14p12------12--14b16----------|--
D|-------------------------|-------------------------------|----------------14---------------------|--
A|-------------------------|-------------------------------|---------------------------------------|--
E|-------------------------|-------------------------------|---------------------------------------|--



E|-----------------------------15b16--|--
B|--15/17----15h17----15h17-----------|--
G|------------------------------------|--
D|------------------------------------|--
A|------------------------------------|--
E|------------------------------------|--



E|-----------------|-----------------------|-------------------------|-------------------------|--
B|-----------------|-----------------------|-------------------------|-------------------------|--
G|------------7h9--|----7------------------|-------------------------|-------------------------|--
D|-----------------|-------9--7/6-----6h7--|----5--------------5-----|--5--5-----------5-------|--
A|-----------------|---------------7-------|-------7p5h7----7-----7--|--------7--5--7-------7--|--
E|-----------------|-----------------------|-------------------------|-------------------------|--



E|--------------------------|--
B|--------------------------|--
G|--------------------------|--
D|--5--5--------------------|--
A|--------5h7--5h7----------|--
E|--------------------------|--
http://www.guitartabcreator.com
Guitar Tab Creator is intended to store guitar tab created through the tool. It currently does not support in-line text editing. Any text you place in here will be lost. If you need to comment on your tab, please use the "Tab Notes" section located below.