Rory Gallagher - 'I Wonder Who' (transcribed by Neil Kendall)

(/) Slide Up  (\) Slide Down  (h) Hammer On  (p) Pull Off  (b) Bend (r) Release (v) Vibrato
E|---------------------------------|------------------------------------------|--3-----------|--
B|---------------------------------|----------4--4----------------------------|--------------|--
G|----------------------3h5-----0--|-------3--------5--3----------------------|--------------|--
D|-----------------3h5-------0-----|--3h5-----------------5\3--1-----3--1-----|--------------|--
A|--3--3-----3--3------------------|------------------------------3--------3--|--------3--0--|--
E|--------3------------------------|------------------------------------------|-----3--------|--



E|---------8--10--10b12r10p8-----8--------------|--
B|--8--10---------------------8-----11--11b13v--|--
G|----------------------------------------------|--
D|----------------------------------------------|--
A|----------------------------------------------|--
E|----------------------------------------------|--



E|---------8--10--10b12r10p8-----8-----------------|--
B|--8--10---------------------8-----8--11--11b13v--|--
G|-------------------------------------------------|--
D|-------------------------------------------------|--
A|-------------------------------------------------|--
E|-------------------------------------------------|--



E|---------8--10--10b12r10p8-----8---------------------------------|--
B|--8--10---------------------8-----8--11b13--11b13--11b13--11b13--|--
G|-----------------------------------------------------------------|--
D|-----------------------------------------------------------------|--
A|-----------------------------------------------------------------|--
E|-----------------------------------------------------------------|--



E|---------------------------------------------------------
B|--11b13r11--8------8-------------------------------------
G|---------------10-----8--10--10b12r8---------------------
D|--------------------------------------10--8h10p8---------
A|--------------------------------------------------10-----
E|---------------------------------------------------------



E|-------------------------------------------------------|--
B|-------------------------------------------------------|--
G|---------8---------8----------------8--10--10b12r10p8--|--
D|--8--10-----8--10---------------10---------------------|--
A|----------------------8--10--8-------------------------|--
E|-------------------------------------------------------|--



E|------------------|-------------------------------------------|--
B|-------------4b5--|-------------------------------------------|--
G|-------3--5-------|--------8--10--10b12r10p8h10--8------------|--
D|--3/5-------------|--8/10---------------------------10--9--8--|--
A|------------------|-------------------------------------------|--
E|------------------|-------------------------------------------|--



E|----------------------------|------------------------------------------------------------------
B|----------------------------|--6b8--6--4--6--6b8--6--4--6--6b8--6--4--6--6b8--6--4--6--4b5-----
G|-------3--5--5b6r5p3-----3--|------------------------------------------------------------------
D|--3/5-----------------5-----|---------------------------------------------------------------7--
A|----------------------------|------------------------------------------------------------------
E|----------------------------|------------------------------------------------------------------



E|-------3--|-------------3--1--|----------------------------------------------------|--
B|----------|-------3--------1--|--6b8--4--6--4--------------------------------------|--
G|--2/4-----|--3h4-----4-----2--|----------------5--4--3-----------------------------|--
D|----------|----------------3--|-------------------------1h3--1h3--1----------------|--
A|----------|-------------------|--------------------------------------1b3--1b3--3v--|--
E|----------|-------------------|----------------------------------------------------|--



E|-------------------------------|-----------------------------|-----
B|-------------------------------|-----------------------4--4--|-----
G|-------------------------3-----|--5--5--7--5--5--5--5--5--5--|-----
D|--5--5--7--5--5-----3/5-----5--|--3--3--3--3--3--3-----------|-----
A|--3--3--3--3--3--3-------------|-----------------------------|-----
E|-------------------------------|-----------------------------|-----



E|-------------------------------|-----------------------------|-------------------------------|--
B|-------------------------------|-----------------------4--4--|-------------------------4-----|--
G|-------------------------3--5--|-----------------------3--3--|--5--5--7--5--8--5--3h5-----5--|--
D|--5--5--7--5--5--5--3h5--------|--5--5--7--5--8--------------|--3--3--3--3--3--3-------------|--
A|--3--3--3--3--3--3-------------|--3--3--3--3--3--3--3--------|-------------------------------|--
E|-------------------------------|-----------------------------|-------------------------------|--



E|-------------------------------|---------8--8--8--8--8--8--8--8--8--8--8--8--|--
B|--------------------4----------|--11b13--------------------------------------|--
G|--5--5--7--5--5--5--3--5p3-----|---------------------------------------------|--
D|--3--3--3--3--3--3----------5--|---------------------------------------------|--
A|-------------------------------|---------------------------------------------|--
E|-------------------------------|---------------------------------------------|--



E|----------------------------------------|----------------------------------------|---------
B|--------------------------------------9/|----10----------------------------------|---------
G|----10b12r10p8----10b12r10p8----10b12-9-|----10----------------------------------|---------
D|--------------------------------------8-|----9-----9-----9-----9-----9-----9-----|---------
A|-------------------------------------/9-|----10----10----10----10----10----10----|---------
E|----------------------------------------|----------------------------------------|---------



E|------------------------|-------------------10b12r10p8------8------------|--
B|------------------------|------------8--10--------------10-----10p8------|--
G|--------10b12r10p8------|--9v--8--9----------------------------------10--|--
D|--7--7--------------10--|------------------------------------------------|--
A|--8--8------------------|------------------------------------------------|--
E|------------------------|------------------------------------------------|--



E|------------------------------
B|------------------------------
G|--9v--0--10b12r10p8-----------
D|---------------------10-------
A|-------------------------10v--
E|------------------------------



E|-------|--7/8--8--|-------|----------------------------|-----------------------------|--
B|--4\3--|--7-8--8--|--4/3--|--------------------11b13v--|-----------------------4--4--|--
G|--4-3--|--7-8--8--|--4-3--|--10b12--10--8--------------|--5--5--7--5--8--5--5--5--5--|--
D|--3-2--|--6-7-----|--3-2--|----------------10----------|--3--3--3--3--3--3-----------|--
A|--4-3--|--7-8-----|--4-3--|----------------------------|-----------------------------|--
E|-------|----------|-------|----------------------------|-----------------------------|--



E|-----------|-10-10-10-10b12-12-12-12-12-12-12-12-12-12-12-12-12-12-12-12r10-10-10-10-10-10-|-
B|-----------|-------------------------------------------------------------------------------|-
G|-5---7-8-0-|-------------------------------------------------------------------------------|-
D|-3-3-3-3---|-------------------------------------------------------------------------------|-
A|-----------|-------------------------------------------------------------------------------|-
E|-----------|-------------------------------------------------------------------------------|-



E|-10b12-12-12-12-12-12-12-12-12-12r10-10-10-10b12v-9\|-8---------|----|-
B|--------------------------------------------------9-|-8-----6---|----|-
G|--------------------------------------------------9-|-8---5---5-|-5v-|-
D|--------------------------------------------------8-|-7-5-------|----|-
A|--------------------------------------------------9-|-8---------|----|-
E|----------------------------------------------------|-----------|----|-



E|---------12------12------12---------12----------10------|--------------------------|--
B|--------------------------------------------------------|---------------8--11b13v--|--
G|--10/12------12------12------10/12------12--10------10--|--8h9--9--8h9-------------|--
D|--------------------------------------------------------|--------------------------|--
A|--------------------------------------------------------|--------------------------|--
E|--------------------------------------------------------|--------------------------|--



E|-----|-------------------|----------------------|----------------------|------------|--
B|-----|-------------------|---------------8------|---------------11-----|--10-8------|--
G|--8--|---------10p8------|--10b12--------8------|--10b12--------10b12--|------------|--
D|-----|--10v----------10--|------------------10--|----------------------|--10\8------|--
A|-----|-------------------|----------------------|----------------------|------------|--
E|-----|-------------------|----------------------|----------------------|------------|--



E|----------------|-------------|---------------9-10--9/|--10----------------------------|--
B|--10-8----------|--5-3--------|--5-3----------9-10--9-|--10----------------------------|--
G|----------------|-------------|---------------9-10--9-|--10-----------------10---------|--
D|--10\8----------|--5\3--------|--5\3----------8-9---8-|--9-----------10/12------12\10--|--
A|----------------|-------------|---------------9/10--9-|--10------10--------------------|--
E|----------------|-------------|-----------------------|--------------------------------|--



E|-------------8-10-|-10b12r10p8---8----8--------------11-13-13b15r13p11-13-11-|-
B|--------8h10------|------------8---11----------11-13-------------------------|-
G|------------------|----------------------10/12-------------------------------|-
D|-8----------------|----------------------------------------------------------|-
A|------------------|----------------------------------------------------------|-
E|------------------|----------------------------------------------------------|-



E|-------------------------------------|----------------------------------------13b15-|-
B|-13b15r13-11----------11-13b16-13b16-|-13b16-11----11-13b15r13p11----11-------------|-
G|-------------12-11-12----------------|----------12----------------12----12-12-------|-
D|-------------------------------------|----------------------------------------------|-
A|-------------------------------------|----------------------------------------------|-
E|-------------------------------------|----------------------------------------------|-



E|--13b15--11--13--13b15r13p11--13--11--------11--|--18b20--20--20--20--20--20--20--20--20r18--|--
B|--------------------------------------13--------|--------------------------------------------|--
G|------------------------------------------------|--------------------------------------------|--
D|------------------------------------------------|--------------------------------------------|--
A|------------------------------------------------|--------------------------------------------|--
E|------------------------------------------------|--------------------------------------------|--



E|--15---------------------------------------------------------|-----
B|------18--18b20r18p16--18--16--------------16------16--18----|-----
G|-------------------------------17--16--17------17------------|-----
D|-------------------------------------------------------------|-----
A|-------------------------------------------------------------|-----
E|-------------------------------------------------------------|-----



E|-----------------------------------------------------------------|--
B|--18b20------20r18--16--18--18b20r18p16--18--16----------16------|--
G|-------------------------------------------------17--17------17--|--
D|-----------------------------------------------------------------|--
A|-----------------------------------------------------------------|--
E|-----------------------------------------------------------------|--



E|-----------------------------------------------------------------------------------
B|--11p8------8------8------8------------8h10p8------8-------------------------------
G|--------10-----10-----10-----------10----------10-----10p8--10---------------------
D|----------------------------------------------------------------10----10p8------8--
A|----------------------------------------------------------------------------10-----
E|-----------------------------------------------------------------------------------



E|----------------------------8------------------------------|--
B|-------------------------8-----11p8------8--10--11--10--8--|--
G|------8--10----8--10b12--------------10--------------------|--
D|--10-------------------------------------------------------|--
A|-----------------------------------------------------------|--
E|-----------------------------------------------------------|--



E|-----------------------------------------------------------------------------------------------
B|--10p8------8--10--11--10------8--10--11p10p8--11p10p8--11p10p8--11p10p8--11p10p8--11p10p8-----
G|--------10-----------------10------------------------------------------------------------------
D|-----------------------------------------------------------------------------------------------
A|-----------------------------------------------------------------------------------------------
E|-----------------------------------------------------------------------------------------------



E|-----------|-----------------------------------------------------------------------------------
B|--11p10p8--|--11p10p8--11p10p8--11p10p8--11p10p8--11p10p8--11p10p8--11p10p8--11p10p8--11p10p8--
G|-----------|-----------------------------------------------------------------------------------
D|-----------|-----------------------------------------------------------------------------------
A|-----------|-----------------------------------------------------------------------------------
E|-----------|-----------------------------------------------------------------------------------



E|------------------|-------------------------------8--10--10b12r10------10p8------8---------
B|--11p10p8------8--|--10b11r10--8h10p8------8--10-------------------10--------10-----11-----
G|-----------10-----|--------------------10--------------------------------------------------
D|------------------|------------------------------------------------------------------------
A|------------------|------------------------------------------------------------------------
E|------------------|------------------------------------------------------------------------



E|------------|----------------------------------------------------------------------
B|--11b13r11--|--11b13------8h11p8------8--10--11--8--10--10p8------8----------------
G|------------|---------------------10--------------------------10-----8-------------
D|------------|-----------------------------------------------------------10--10-----
A|------------|----------------------------------------------------------------------
E|------------|----------------------------------------------------------------------



E|---------------|--8----------------8---------|--13b15--15--15--15--15--15--15--15--15--15-----
B|------------8--|-----11b13--11b13-----11b13--|------------------------------------------------
G|--8--10b11-----|-----------------------------|------------------------------------------------
D|---------------|-----------------------------|------------------------------------------------
A|---------------|-----------------------------|------------------------------------------------
E|---------------|-----------------------------|------------------------------------------------



E|--15--15--15--15--15--15--15--15--15--15--15--15--15--15--15--15--15--15--15--15--15--15--|--
B|------------------------------------------------------------------------------------------|--
G|------------------------------------------------------------------------------------------|--
D|------------------------------------------------------------------------------------------|--
A|------------------------------------------------------------------------------------------|--
E|------------------------------------------------------------------------------------------|--



E|--13b15--15--15--15--15--15--15--15--15r13--13--13--13--13--13--13--13--12--12--12--12--12b13--
B|-----------------------------------------------------------------------------------------------
G|-----------------------------------------------------------------------------------------------
D|-----------------------------------------------------------------------------------------------
A|-----------------------------------------------------------------------------------------------
E|-----------------------------------------------------------------------------------------------



E|--13r12--12--12--12--|--13b15--15--15--15--15--15--15--15--15--15--15--15--15--15--15--15--
B|---------------------|---------------------------------------------------------------------
G|---------------------|---------------------------------------------------------------------
D|---------------------|---------------------------------------------------------------------
A|---------------------|---------------------------------------------------------------------
E|---------------------|---------------------------------------------------------------------



E|--15--15--15--15--15--15--15--15--13b15--13--|--13b15--15--15--15--15--15--15--15--15--
B|---------------------------------------------|-----------------------------------------
G|---------------------------------------------|-----------------------------------------
D|---------------------------------------------|-----------------------------------------
A|---------------------------------------------|-----------------------------------------
E|---------------------------------------------|-----------------------------------------



E|--15--15--15--15b17--|----------------------------------------------------|--
B|---------------------|----------------------------------------------------|--
G|---------------------|----------------8--10b12--10b12r10p8h10--8----------|--
D|---------------------|----------8/10------------------------------10--10--|--
A|---------------------|----------------------------------------------------|--
E|---------------------|----------------------------------------------------|--



E|-----------------------------------------------------------|-------------------------------
B|-----------------------------------------------------------|-------------------------------
G|------------8--10b12--12r10p8--10--8--10b12--10b12--10b13--|--10b12--10--8--10--8----------
D|------8/10-------------------------------------------------|-----------------------10--10--
A|-----------------------------------------------------------|-------------------------------
E|-----------------------------------------------------------|-------------------------------



E|---------|----------------------------------------|--10b12r10p8------8---------8----------|--
B|--8--10--|--11--10--8--10--11--10--8------8-------|--------------10-----8--11-------------|--
G|---------|----------------------------10-----9----|---------------------------------------|--
D|---------|----------------------------------------|---------------------------------------|--
A|---------|----------------------------------------|---------------------------------------|--
E|---------|----------------------------------------|---------------------------------------|--



E|------------------------------------------------------------------------------------------|-
B|-15-15b18-18-18-18-18-18-18-18-18-18-18r17-17-17-17-17-17r16-16-16-16-16-16-16-16-15------|-
G|------------------------------------------------------------------------------------------|-
D|------------------------------------------------------------------------------------------|-
A|------------------------------------------------------------------------------------------|-
E|------------------------------------------------------------------------------------------|-



E|---------8------------------------------------------------------|-
B|-------8---11p8----8-10-11-10-8-10p8----8-8-------------------8-|-
G|-10b12----------10-------------------10---8-------------------8-|-
D|--------------------------------------------10-8-10p8----8-10---|-
A|------------------------------------------------------10--------|-
E|----------------------------------------------------------------|-



E|------------8---------8---------8---------------|---------------------------|-----------|-
B|----------8---------8---------8---------8-11b13-|---------------------------|-----------|-
G|----10b12-----10b12-----10b12-----10b12---------|----------------10b12r10p8-|-----------|-
D|-10---------------------------------------------|---------------------------|-10--------|-
A|------------------------------------------------|---------------------------|-----------|-
E|------------------------------------------------|---------------------------|-----------|-



E|-11/12-12-12-12-12-12-11-12-12-12-12-12-12-11-12-12-12-12-12-12-12\10-------------|-
B|-12-13-13-13-13-13-13-12/13-13-13-13-13-13-12/13-13-13-13-13-13-13-11-------------|-
G|----------------------------------------------------------------------------------|-
D|----------------------------------------------------------------------------------|-
A|----------------------------------------------------------------------------------|-
E|----------------------------------------------------------------------------------|-



E|-11-12-12-12-12-12-12-11-12-12-12-12-12-12-11-12-12-12-12-12-12-10---------------|-
B|-12/13-13-13-13-13-13-12/13-13-13-13-13-13-12/13-13-13-13-13-13-11---------------|-
G|---------------------------------------------------------------------------------|-
D|---------------------------------------------------------------------------------|-
A|---------------------------------------------------------------------------------|-
E|---------------------------------------------------------------------------------|-



E|--------------------------------|--------------------------|-------------------------------
B|---------8---------------8--11--|--11b13-------------------|-------------------------------
G|--8---8-----8-------------------|-----------------10b12----|--8--10--10b12r10p8--10b12--8--
D|--10-----------10---------------|--------------------------|-------------------------------
A|--------------------------------|--------------------------|-------------------------------
E|--------------------------------|--------------------------|-------------------------------



E|--------------------------------------|--------------------------------------------|--
B|----------------------------------11--|--11-----11-----11-----11-----11-----11-----|--
G|-------------8------8--10--10b12------|--10b12--10b12--10b12--10b12--10b12--10b12--|--
D|--10--9--10-----10--------------------|--------------------------------------------|--
A|--------------------------------------|--------------------------------------------|--
E|--------------------------------------|--------------------------------------------|--



E|----------------------|--------------------|--------------------------------------------------
B|--11-------------6p4--|-----------6b8r6p4--|--------------------------------------------------
G|--10b12---------------|--5-----------------|--5p0--5p0--5p0--5p0--5p0--5p0--5p0--5p0--5p0-----
D|----------------------|--------------------|--------------------------------------------------
A|----------------------|--------------------|--------------------------------------------------
E|----------------------|--------------------|--------------------------------------------------



E|-------------|---------------------------|-----------------------------------------
B|-------------|-6b8-6b8r6-4-6-6b8r6-4-----|---4---4-6-6b8r6p4-6p4---4-6-6b8---------
G|-5p0-5p0-5p0-|-----------------------5-4-|-5---5-----------------5-----------------
D|-------------|---------------------------|-----------------------------------------
A|-------------|---------------------------|-----------------------------------------
E|-------------|---------------------------|-----------------------------------------



E|----|-------------10\|--8--8---------------8--|---------------------8---------
B|--4\|--3----------10-|--8--8------------------|--10--------------------10-----
G|--4-|--3----------10-|--8--8----------8/9-----|--9-\7----------7/9------------
D|--3-|--2----------9--|--7--7------------------|-------------------------------
A|--4-|--3----------10-|--8--8------------------|-------------------------------
E|----|----------------|------------------------|-------------------------------



E|-----------------------------|----------------|-------------------|----------------------|--
B|-----------------------------|----------6--4--|----------6--4-----|----------------------|--
G|--9\7------7--------0--7--0--|-------5--------|-------5--------5--|-------------5--3--5--|--
D|--------------8--8-----------|--5/7-----------|--5/7--------------|----------5-----------|--
A|-----------------------------|----------------|-------------------|--3--5/7--------------|--
E|-----------------------------|----------------|-------------------|----------------------|--



E|-------------------------|--10--10--10--10--10--10--10--10--10--10------------|--
B|-------------------------|--10--10--10--10--10--10--10--10--10--10------------|--
G|----------------5--3--5--|--10--10--10--10--10--10--10--10--10--10------------|--
D|-------------5-----------|--9---9---9---9---9---9---9---9---9---9-------------|--
A|--3--3--5/7--------------|--10--10--10--10--10--10--10--10--10--10------------|--
E|-------------------------|----------------------------------------------------|--



E|--7/8--8--8--8--8--8--8--8--8--8--8--8--|------------------------------------|--
B|--7-8--8--8--8--8--8--8--8--8--8--8--8--|------------------------------------|--
G|--7-8--8--8--8--8--8--8--8--8--8--8--8--|------3h5--3h5--3h5--3--------------|--
D|--6-7--7--7--7--7--7--7--7--7--7--7--7--|------------------------5--3--1-----|--
A|--7-8--8--8--8--8--8--8--8--8--8--8--8--|---------------------------------3--|--
E|----------------------------------------|------------------------------------|--



E|------------------------|------13b15----|--13b15--13--11--13b15--13--11--13b15--13--11b12--|--
B|------------------------|---------------|--------------------------------------------------|--
G|--5--------3h5--3h5--4--|---------------|--------------------------------------------------|--
D|------------------------|---------------|--------------------------------------------------|--
A|------------------------|---------------|--------------------------------------------------|--
E|------------------------|---------------|--------------------------------------------------|--



E|------------18b20--15------|--------------------------|--13b15--13--11--13b15--13--11-----
B|-----------------------18--|--18b20--------18b20------|-----------------------------------
G|---------------------------|--------------------------|-----------------------------------
D|---------------------------|--------------------------|-----------------------------------
A|---------------------------|--------------------------|-----------------------------------
E|---------------------------|--------------------------|-----------------------------------



E|--13b15--13--11--|------11--------------------------------------------------------------------|--
B|-----------------|--13------13--13-------------11--13p11------11--13--11------11--13--11------|--
G|-----------------|----------------------10/12-------------12--------------12--------------12--|--
D|-----------------|----------------------------------------------------------------------------|--
A|-----------------|----------------------------------------------------------------------------|--
E|-----------------|----------------------------------------------------------------------------|--



E|--------------------------11--10--11--10------10--11--13--11--10------10------------------|--
B|--11--13--11------11--13------------------13----------------------13------13--11----------|--
G|--------------12------------------------------------------------------------------12--12--|--
D|------------------------------------------------------------------------------------------|--
A|------------------------------------------------------------------------------------------|--
E|------------------------------------------------------------------------------------------|--



E|------------8------------8------------8------------8---------|--------------------------|--
B|---------8------------8------------8------------8-----11b13--|-----------------6b8r6p4--|--
G|--10b12--------10b12--------10b12--------10b12---------------|--------------------------|--
D|-------------------------------------------------------------|--3/5---------------------|--
A|-------------------------------------------------------------|--------------------------|--
E|-------------------------------------------------------------|--------------------------|--



E|--------------------------|-----------------|-------------------------------
B|-6------------------------|---------8-------|-8-8-8-8-8-8-8-8-8-8-8-8-8-8---
G|--------10b12-8-10-8------|---------8-------|-------------------------------
D|---------------------10-8-|-10p8------------|-------------------------------
A|--------------------------|------10---------|-------------------------------
E|--------------------------|-----------------|-------------------------------



E|----------------------|------------------------------------------|-8-----
B|-11p10p8-11p10p8----8-|--------------------------------------8---|-8-----
G|-----------------10---|-8-10-10b12r10p8----10-8--------------8---|-9-----
D|----------------------|-----------------10------10-8-10p8--------|-10----
A|----------------------|-----------------------------------10-----|-10----
E|----------------------|------------------------------------------|-8-----



E|----------8---------------|---------------------------------------------------|-
B|-8---8-10---11-10-11-10---|---------------------------------------------------|-
G|-8-9--------------------8-|--------------8----------------8-------------------|-
D|--------------------------|-10-8-10p8--------10-8-10p8------10-8-10p8----8-10-|-
A|--------------------------|-----------10---------------10-------------10------|-
E|--------------------------|---------------------------------------------------|-



E|--------------------------|-8----------------------------|---------8-8-|-
B|---------------------8-10-|---11-10p8--------------------|----8h10---8-|-
G|-8-10-10b12------8-9------|-----------10-8h9-------------|-------------|-
D|--------------------------|------------------10-8-10-----|-------------|-
A|--------------------------|------------------------------|-------------|-
E|--------------------------|------------------------------|-------------|-



E|-8-8-8-8-8-8-8-------------------|-
B|-8-8-8-8-8-8-8-------------------|-
G|---------------------------------|-
D|---------------------------------|-
A|---------------------------------|-
E|---------------------------------|-



E|---------------------------------------------8---------8---------8---------8-
B|-8h11p8----8-10-11-8-10p8----8-------------8---------8---------8---------8---
G|--------10----------------10---8-----10b12-----10b12-----10b12-----10b12-----
D|-----------------------------------------------------------------------------
A|-----------------------------------------------------------------------------
E|-----------------------------------------------------------------------------



E|-------------------------------------------------------------------------------------------
B|--11p10--8--10--8---------10---------------------------------8------------8--8--8--8-------
G|-------------------8------10--8------------------------------8------------8--8--8--8-------
D|----------------------10---------10--8--10p8------8--10------------------------------------
A|----------------------------------------------10-------------------------------------------
E|-------------------------------------------------------------------------------------------



E|--8-------------------|--
B|--8-------------------|--
G|--9-------------------|--
D|--10------------------|--
A|----------------------|--
E|----------------------|--
http://www.guitartabcreator.com
Guitar Tab Creator is intended to store guitar tab created through the tool. It currently does not support in-line text editing. Any text you place in here will be lost. If you need to comment on your tab, please use the "Tab Notes" section located below.