On The Road Again (lead guitar 1.44 to 2.50)

(/) Slide Up  (\) Slide Down  (h) Hammer On  (p) Pull Off  (b) Bend (r) Release (v) Vibrato
E|------------------------|----------------------|-------------------------------|--
B|----9--------9----------|----9--------9--------|-------------------------------|--
G|----13b15----13b15------|----13b15----13b15----|--9--9--9--9--9--9b10--10--10--|--
D|------------------------|----------------------|-------------------------------|--
A|------------------------|----------------------|-------------------------------|--
E|------------------------|----------------------|-------------------------------|--



E|--------------------------------|------------------------|-----------------------------|--
B|--------------------------------|-----------------10-----|----10------10--10-----------|--
G|--10--10--10--10r9--9--9--9--9--|--9--8-----------12b14--|--------14------12b14--------|--
D|--------------------------------|----------9-------------|-----------------------------|--
A|--------------------------------|------------------------|-----------------------------|--
E|--------------------------------|------------------------|-----------------------------|--



E|----------------------------------------|-------------------------------|-----
B|-------7-----7---7---7---7---7---7------|--7---7------------------------|-----
G|----9--9b11--11--11--11--11--11--11r10--|--10--10r9--7-------7--7-------|-----
D|----------------------------------------|---------------9----------9----|-----
A|----------------------------------------|-------------------------------|-----
E|----------------------------------------|-------------------------------|-----



E|---------------7---------7---------|----10--------------------------|--
B|--10--10b12-------10b12-----10b12--|--------10--10--12b15----12b15--|--
G|-----------------------------------|--------------------------------|--
D|-----------------------------------|--------------------------------|--
A|-----------------------------------|--------------------------------|--
E|-----------------------------------|--------------------------------|--



E|---------------------------------------------|----------------------------------------|--
B|--15--15--15--15--15r14--14r13--13r12--------|--10---------12------14b16--16--16--16--|--
G|---------------------------------------9/11--|------11/13------13---------------------|--
D|---------------------------------------------|----------------------------------------|--
A|---------------------------------------------|----------------------------------------|--
E|---------------------------------------------|----------------------------------------|--



E|----------------------7-----|-------------------------------|--9b11--9----7--9--7----9--|--
B|--16r14------/16---------7--|--10--10b12----12r10--7--9--7--|---------------------------|--
G|----------------------------|-------------------------------|---------------------------|--
D|----------------------------|-------------------------------|---------------------------|--
A|----------------------------|-------------------------------|---------------------------|--
E|----------------------------|-------------------------------|---------------------------|--



E|--9b10--10--10--9--9--7-------------|-----------------------|-----------------------|-------
B|---------------------------10b12----|------------10--10b12--|------------10--10b12--|--r10--
G|------------------------------------|-----------------------|-----------------------|-------
D|------------------------------------|-----------------------|-----------------------|-------
A|------------------------------------|-----------------------|-----------------------|-------
E|------------------------------------|-----------------------|-----------------------|-------



E|---------------------|--------------------------|-----------------------|------------------|-----
B|----------10--10b12--|--r10----------10--10b12--|------------10--10b12--|----------12--12--|-----
G|---------------------|--------------------------|-----------------------|------------------|-----
D|---------------------|--------------------------|-----------------------|------------------|-----
A|---------------------|--------------------------|-----------------------|------------------|-----
E|---------------------|--------------------------|-----------------------|------------------|-----



E|------------------------------------|---------------------------|-------------------------|--
B|--12----12----12----12r10----10b12--|--r10--------10----10------|--10b12----------10--10--|--
G|------------------------------------|---------------------------|-------------------------|--
D|------------------------------------|---------------------------|-------------------------|--
A|------------------------------------|---------------------------|-------------------------|--
E|------------------------------------|---------------------------|-------------------------|--



E|---------------------------|-----------------|-------------------------|-------------------|-----
B|--10b12------------12--12--|--12r10----------|--b12------10----10--10--|--10b12----10--10--|-----
G|---------------------------|-----------------|-------------------------|-------------------|-----
D|---------------------------|-----------------|-------------------------|-------------------|-----
A|---------------------------|-----------------|-------------------------|-------------------|-----
E|---------------------------|-----------------|-------------------------|-------------------|-----



E|---------------------------|-------------10------------|------------------------------|--
B|--10b12----------12----12--|--r10------------10b11r10--|--10b12r10b12r10b12----12r10--|--
G|---------------------------|---------------------------|------------------------------|--
D|---------------------------|---------------------------|------------------------------|--
A|---------------------------|---------------------------|------------------------------|--
E|---------------------------|---------------------------|------------------------------|--



E|-------------------------------------|-------------------------|--
B|--7--------7--10--------7--10--------|--7--10--9b10r9----------|--
G|-----9b10---------9b10---------9b10--|---------9---------------|--
D|-------------------------------------|-------------------------|--
A|-------------------------------------|-------------------------|--
E|-------------------------------------|-------------------------|--



E|-------------7-------------------|---------------------------|-----------------------------|--
B|--9--9b10r9--------9b10-------9--|-------9b10r9--------7--7--|-----------9b10r9----9b10r9--|--
G|-----9----------7--9-------7--9--|----7--9-------7-----7--7--|-----7--9--9---------9-------|--
D|---------------------------------|------------------9--------|--9--------------------------|--
A|---------------------------------|---------------------------|-----------------------------|--
E|---------------------------------|---------------------------|-----------------------------|--



E|-----------------------------|---------------------------------
B|----7-----7--9b10r9----------|--7------------------------------
G|----7-----7--9---------------|--7-----7--9--9b11--9b11r9b11----
D|-------9---------------------|-----9---------------------------
A|-----------------------------|---------------------------------
E|-----------------------------|---------------------------------
http://www.guitartabcreator.com
Guitar Tab Creator is intended to store guitar tab created through the tool. It currently does not support in-line text editing. Any text you place in here will be lost. If you need to comment on your tab, please use the "Tab Notes" section located below.