Rattlesnake Shake Solo (3.10 to 4.15).

(/) Slide Up  (\) Slide Down  (h) Hammer On  (p) Pull Off  (b) Bend (r) Release (v) Vibrato

E|--------------------|-------5-----------------------|-------------------------|-----
B|--------------------|-------------------------------|-------------------------|-----
G|-----------------5--|--7b9-----7b9v----7b9r7p5--5b7r|--5---------------12/14--|-----
D|--------7p5h7p5-----|-------------------------------|-----7p5--7--7-----------|-----
A|--------------------|-------------------------------|-------------------------|-----
E|--------------------|-------------------------------|-------------------------|-----



E|--------------15--12----------------------------------|----------------------------------------|--
B|--13------------------15--13--------15b17r15--13------|--15b17--15----13------15b17r15p13------|--
G|------14--14------------------14------------------14--|-------------------14---------------14--|--
D|------------------------------------------------------|----------------------------------------|--
A|------------------------------------------------------|----------------------------------------|--
E|------------------------------------------------------|----------------------------------------|--



E|---------------------------------------|------------------------|--
B|--------13------------12--------13b15--|--13--------------------|--
G|----14--------14--12--------14---------|--------14--12----------|--
D|---------------------------------------|------------------------|--
A|---------------------------------------|------------------------|--
E|---------------------------------------|------------------------|--



E|----------------------------------------------|-------------------------------------|--
B|--10--8--8--8----10----10--8-----8-----10-----|--10p8-----8--7--5h7p5---------------|--
G|--9---9--9-------9-----9------9--9--9--9---9--|--9-----9---------------7--5---------|--
D|----------------------------------------------|--------------------------------7p5--|--
A|----------------------------------------------|-------------------------------------|--
E|----------------------------------------------|-------------------------------------|--



E|-------5----------------------|--8---8-----8---8-----8---8-\7-8-----8---|--
B|-------5----------------------|--10--10----10--10----10--10-9/10----10--|--
G|-------5----5--5--------------|-----------------------------------------|--
D|--7-----------------7p5--7----|-----------------------------------------|--
A|------------------------------|-----------------------------------------|--
E|------------------------------|-----------------------------------------|--



E|--------------------------------------|-------------------------------------
B|--------------------------------------|-------------------------------------
G|---------5\4----7----5-----5-----5--7p|--5p4h5p4p0h5p4p0h4------------------
D|----5h7-----------------7-----7-------|---------------------5p4h5p4p2h4p2h4p
A|--------------------------------------|-------------------------------------
E|--------------------------------------|-------------------------------------



E|--------------|--5--3------------|----3----3----3--3--3--3--3--3--3----|--
B|--------------|--5--3------------|----3----3----3--3--3--3--3--3--3----|--
G|--------------|------------------|-------------------------------------|--
D|--2-----------|------------------|-------------------------------------|--
A|-----4p2p0----|------------------|-------------------------------------|--
E|--------------|------------------|-------------------------------------|--



E|--------------------------------------------|-----------------------------5--|--
B|--------------------------------------------|--------------------------------|--
G|-----------5----7-------------5-------5--7--|--7b9--7--5---------------------|--
D|-----------5----7-------------5----7--------|-------------7--5--7----7-------|--
A|--0--0--0------------0--0--0----------------|--------------------------------|--
E|--------------------------------------------|--------------------------------|--
http://www.guitartabcreator.com
Guitar Tab Creator is intended to store guitar tab created through the tool. It currently does not support in-line text editing. Any text you place in here will be lost. If you need to comment on your tab, please use the "Tab Notes" section located below.