Rattlesnake Shake Solo (1.48 to 2.48)

(/) Slide Up  (\) Slide Down  (h) Hammer On  (p) Pull Off  (b) Bend (r) Release (v) Vibrato
E|---------------------|------------------|-------------------|-----------------------------------|--
B|---------------------|------------------|-------------------|-----------------------------------|--
G|---------------------|--5---------------|-------------------|-----------------5-----------------|--
D|---------------------|-----7p5--7v------|----7v-------------|--5--5b7r5-------------------------|--
A|--------------0h5b7--|------------------|----------------7--|--------------7-----7--6--5--3--5--|--
E|---------------------|------------------|-------------------|-----------------------------------|--



E|-------------------------|---------------------------------|----------------------------------|--
B|-------------------------|----8-------8-------------10-----|--8-----8---------------10--------|--
G|-------------------------|----9----9-------9------------9--|--9--9-------11b12----------9--5--|--
D|-------------------------|---------------------------------|----------------------------------|--
A|--0--5b6--5----3---------|---------------------------------|----------------------------------|--
E|------------------5------|---------------------------------|----------------------------------|--



E|---------------------------------------------|--------------------------------------|--
B|---------------------------------------------|--------------------------------------|--
G|-----------5---------------------------------|--------------------------------------|--
D|--7--5---------------------------------------|--------------------------------------|--
A|--------7-----7--6--5--3--5--5b6r5--3--5--3--|----0h3--5--5--3-----3p0h3------------|--
E|---------------------------------------------|------------------5-----------5--3b5--|--



E|------------7--7--|------------9---9---|------------7--7--|-------------------|--
B|------------8--8--|------------10--10--|------------8--8--|------------17b20--|--
G|------------7--7--|--------------------|------------------|-------------------|--
D|------------------|--------------------|------------------|-------------------|--
A|------------------|--------------------|------------------|-------------------|--
E|------------------|--------------------|------------------|-------------------|--



E|------------------------------------------------------|--------------------------------------|--
B|----17----14------------------------------------------|--------------------------------------|--
G|--------------16--14--16b18r16p14------14--14--14\12--|--12\11--9------11--12p11p9--11----5--|--
D|-----------------------------------16-----------------|------------10------------------------|--
A|------------------------------------------------------|--------------------------------------|--
E|------------------------------------------------------|--------------------------------------|--



E|-----5--------------|----------------|----------------|-----------------------|--
B|-----5--------------|----------------|--------------8\|--7--------------------|--
G|--------------------|----------------|----------------|-----7--5\4------------|--
D|--7-----------------|----------------|----------------|-------------5/7-------|--
A|--------------------|----------------|----------------|------------------5\4--|--
E|--------------------|----------------|----------------|-----------------------|--



E|-----------------------------|---------------------
B|-----------------------------|---------------------
G|---------------7-------7-----|-----5-4-------5-----
D|-----7---------7-------7--7--|-----5\4-------5--7--
A|----------7/9-----7/9--------|--0---------0--------
E|--5--------------------------|---------------------
http://www.guitartabcreator.com
Guitar Tab Creator is intended to store guitar tab created through the tool. It currently does not support in-line text editing. Any text you place in here will be lost. If you need to comment on your tab, please use the "Tab Notes" section located below.