Rattlesnake Shake

(/) Slide Up  (\) Slide Down  (h) Hammer On  (p) Pull Off  (b) Bend (r) Release (v) Vibrato
E|---------------------|----------------------|-
B|---------------------|----------------------|-
G|----7b9r7--5-7-5-----|----------------------|-
D|------------------7--|--7--7----------------|-
A|---------------------|----------------------|-
E|---------------------|----------------------|-



E|----------5-----------------|-----------------------|---------------|---
B|----------------------------|-------------5---------|---------------|---
G|------------7b9---7b9r7p5---|--7-5--------5---5--7--|---------------|---
D|--------------------------7-|------7--7-------5--7--|---------5--7--|---
A|----------------------------|-----------------------|---------------|---
E|----------------------------|-----------------------|---------------|---



E|------------------------------------|-------------------------------------|------------------------------|--
B|------------------------------------|-------------------------------------|---------------8--------------|--
G|--------------------------5----7----|-------------------------------------|----------------------5----7--|--
D|--------------------------5----7----|--------------------------------5----|----7-----------------5----7--|--
A|------------------------------------|-------------------------------------|------------------------------|--
E|------------------------------------|-------------------------------------|------------------------------|--



E|---------------|---------------------------|-----5-------5----------------------|-----
B|----------8\7--|---------------------------|-----5----7--5--7b8r7p5-----5-------|-----
G|---------------|----5\4--------------------|----------7--------------7-----5----|-----
D|---------------|---------5-----------------|------------------------------------|-----
A|---------------|------------7--5h7p5--3----|------------------------------------|-----
E|---------------|---------------------------|--5---------------------------------|-----



E|-----5----5--5--------------|--
B|-----5----5--5--------------|--
G|----------------7b9r7----5--|--
D|--7-------------------------|--
A|----------------------------|--
E|----------------------------|--
http://www.guitartabcreator.com
Guitar Tab Creator is intended to store guitar tab created through the tool. It currently does not support in-line text editing. Any text you place in here will be lost. If you need to comment on your tab, please use the "Tab Notes" section located below.