Psychobilly tutorial transcription

(/) Slide Up  (\) Slide Down  (h) Hammer On  (p) Pull Off  (b) Bend (r) Release (v) Vibrato

E|-----------------------------|--------------------2-3\2-----|--2/3-----3------3--3--------|--
B|-----------------------------|---------------2/3--2/3-2--2--|--2-3--3---------------4--4--|--
G|-----------------------------|--------2/3-------------------|-----------------------------|--
D|----------------3-----5------|--4--5------------------------|-----------------------------|--
A|-----------4h5-----5---------|------------------------------|-----------------------------|--
E|--3--3--6--------------------|------------------------------|-----------------------------|--



E|-------------------------------|--------------------------------3--|--
B|-------------------------------|-----------------------------3-----|--
G|--5--5-------------------------|----------5--3-------3--5b7--------|--
D|--------4--4--5--5-------------|----------5-------5----------------|--
A|--------------------6--6--3----|-------5---------------------------|--
E|-------------------------------|--3h6------------------------------|--



E|-----------5--5--------------------|------------------------------------|--
B|--6/8------------6--6--7--7--------|------------------------------------|--
G|-----------------------------7--7--|------------------------------------|--
D|-----------------------------------|--5----3----4-----------------------|--
A|-----------------------------------|-----------------5---------------5--|--
E|-----------------------------------|----------------------3----3--6-----|--



E|--------------------------|----3------------------------------------|--
B|-------5------------------|-------7p3-----3-------------------------|--
G|--3h5--5--3----------5b7--|------------6-----6p5p3-----5-----3------|--
D|-------------5----5-------|-------------------------5-----5---------|--
A|--------------------------|-----------------------------------------|--
E|--------------------------|-----------------------------------------|--



E|------------------3--------|----7--8----------------|----------------------------3v--|--
B|----------2--2/3-----6--3--|----------7--8----------|---------8----3--3--5--3----3---|--
G|-----2/3-------------------|----------------7--8----|------8-----8\3--3--5--3----3---|--
D|--5------------------------|----------------------9/|--10------------------------5---|--
A|---------------------------|------------------------|--------------------------------|--
E|---------------------------|------------------------|--------------------------------|--



E|--5--5-----------------------------------------|--------------------6--10p6---------------|--
B|--------6--6--7--7-----------------------------|-----------------8-----------8------------|--
G|--------------------7--7--5--5-----------------|--------------7-----------------7---------|--
D|--------------------------------4--4--5--5-----|-----------8-----------------------8------|--
A|--------------------------------------------5--|-------10-----------------------------10--|--
E|-----------------------------------------------|--3---------------------------------------|--



E|---------------|--
B|---------------|--
G|---------------|--
D|--5------------|--
A|--5------------|--
E|--3------------|--
http://www.guitartabcreator.com
Guitar Tab Creator is intended to store guitar tab created through the tool. It currently does not support in-line text editing. Any text you place in here will be lost. If you need to comment on your tab, please use the "Tab Notes" section located below.