Psychobilly Freakshow (riff + solo) transcription

(/) Slide Up  (\) Slide Down  (h) Hammer On  (p) Pull Off  (b) Bend (r) Release (v) Vibrato
E|-----------------------|--------------------|--
B|-----------------------|--------------------|--
G|-----------------------|--------------------|--
D|-------2----5----4-----|-------2----5----4--|--
A|--4-----------------4--|----4---------------|--
E|-----------------------|--------------------|--



E|------------------------|-------------------|--------------
B|------------------------|-------------------|--------------
G|------------------------|-------------------|--------------
D|--2----6----9-----8--2--|--2--6----9-----8--|--------------
A|--4----7----10----9--4--|--4--7----10----9--|--------------
E|------------------------|-------------------|--------------



E|-----------------------|--------------------|--
B|-----------------------|--------------------|--
G|-------1----4----3-----|-------1----4----3--|--
D|-------2----5----4-----|-------2----5----4--|--
A|--4-----------------4--|----4---------------|--
E|-----------------------|--------------------|--



E|-----------------------|--------------------|--
B|-----------------------|--------------------|--
G|------------4----3-----|------------4----3--|--
D|-------6----5----4-----|-------6----5----4--|--
A|--4----7------------4--|----4--7------------|--
E|-----------------------|--------------------|--



E|--------------|------------|-----------|--------|--------|------------|------------|--
B|--------2-----|--2---------|-----------|--------|--------|------------|------------|--
G|--------------|------------|-----------|--------|--------|---------6--|---------6--|--
D|-----------2--|-----2------|-----------|--------|--------|---------4--|------4--4--|--
A|--------------|------------|----4------|--------|--------|------------|------------|--
E|--------------|------------|-----------|--------|--------|------1-----|------------|--



E|---------------|----------------|-----------------|--------------|--------------|--
B|---------------|----------------|-----------------|-----------5--|-----------5--|--
G|---------6--4--|----------6--4--|-----------6--4--|--------6-----|--------6-----|--
D|------4--4-----|----------------|--------4--4-----|--------4-----|--------4-----|--
A|---------------|----------------|-----------------|--------------|--------------|--
E|---------------|----------------|-----------------|--------------|--------------|--



E|--------------|------------|-------------|----------------------|-----------|-------------|--
B|-----------5--|----7----5--|-------------|----5----7----5----7--|-----------|--5--5-------|--
G|--------6-----|---------4--|-------------|---------6------------|-----------|--4--4-------|--
D|--------4-----|------------|----------4--|----------------------|--------4--|----------4--|--
A|--------------|------------|-------------|----------------------|-----------|-------------|--
E|--------------|------------|-------------|----------------------|-----------|-------------|--



E|--------------|--------------|----------|-----------------|-----------------|--
B|--------------|----5---------|----------|-----------------|-----------------|--
G|-----------4--|----4---------|----------|-----------------|-----------------|--
D|-----------4--|---------4----|----------|-----------------|-----------------|--
A|--------4-----|--------------|----------|----4--4----4----|--4------4----4--|--
E|--------------|--------------|----------|-----------------|-----------------|--



E|-----------------|-------------------|------------------|-------------------|--
B|-----------------|-------------------|------------------|-------------------|--
G|-----------------|-------------------|------------------|-------------------|--
D|-----------------|-------------------|------------------|-------------------|--
A|----4--4----4----|--4--------4----4--|------4--------4--|--4--------4----4--|--
E|-----------------|-------------------|------------------|-------------------|--



E|--------------|----------------|-------------------|-------------------|--
B|--------------|----------------|-------------------|-------------------|--
G|--------------|----------------|-------------------|-------------------|--
D|--------------|----------------|-------------------|-------------------|--
A|----4----2----|--4--------4----|--3----4------4----|--4------4----4----|--
E|--------------|----------------|-------------------|-------------------|--



E|-------------|--------------|----------------|--
B|-------------|--------------|----------------|--
G|-------------|--------------|----------------|--
D|-------------|--------------|----------------|--
A|------4------|----4----4----|----4----4------|--
E|-------------|--------------|----------------|--
http://www.guitartabcreator.com
Guitar Tab Creator is intended to store guitar tab created through the tool. It currently does not support in-line text editing. Any text you place in here will be lost. If you need to comment on your tab, please use the "Tab Notes" section located below.