A Person Isn't Safe (The Chameleons)

(/) Slide Up  (\) Slide Down  (h) Hammer On  (p) Pull Off  (b) Bend (r) Release (v) Vibrato
E|--------------------------|--------------------------|--
B|--------------------------|--5--5--5--5--5--5--5--5--|--
G|--4--4--4--4--4--4--4--4--|--4--4--4--4--4--4--4--4--|--
D|--4--4--4--4--4--4--4--4--|--2--2--2--2--2--2--2--2--|--
A|--2--2--2--2--2--2--2--2--|--------------------------|--
E|--------------------------|--------------------------|--



E|----------------------|----------------------|--
B|----------------------|-----3----------2--2--|--
G|----------------------|--0--------2----------|--
D|----------------------|--------2-------------|--
A|----------------------|----------------------|--
E|----------------------|----------------------|--



E|--------------------------|--10--10--10--10--9--9--9--9--|--
B|--7--7--7--7--7--7--7--7--|------------------------------|--
G|--------------------------|------------------------------|--
D|--------------------------|------------------------------|--
A|--------------------------|------------------------------|--
E|--------------------------|------------------------------|--



E|--------------------------|--7--7--7--7------------------|--
B|--7--7--7--7--7--7--7--7--|--------------10--10--10--10--|--
G|--------------------------|------------------------------|--
D|--------------------------|------------------------------|--
A|--------------------------|------------------------------|--
E|--------------------------|------------------------------|--



E|--------------------------|-------------------------|--
B|--------------------------|-------------------------|--
G|--------------------------|-------------------------|--
D|--4--4--4--4--------------|--4--4--4----------------|--
A|--2--2--2--2--5--5--5--5--|--2--2--2--5----5--5--5--|--
E|--------------------------|-------------------------|--



E|--------------------------|--------------------------|--
B|--------------------------|--------------------------|--
G|--7--7--7--7--7--7--7--7--|--9--9--9--9--7--7--7--7--|--
D|--7--7--7--7--7--7--7--7--|--9--9--9--9--7--7--7--7--|--
A|--5--5--5--5--5--5--5--5--|--7--7--7--7--5--5--5--5--|--
E|--------------------------|--------------------------|--



E|--------------------------|-------------------------|--
B|--------------------------|--------------0----------|--
G|--------------------------|-------------------------|--
D|--------------------------|-------------------------|--
A|--------------------------|-------------------------|--
E|--------------------------|-------------------------|--



E|--------------------------|-------------------------|--
B|--------------------------|-------------------------|--
G|--------------------------|-------------------------|--
D|--4--4--4--4--------------|--4--4--4----------------|--
A|--2--2--2--2--5--5--5--5--|--2--2--2--5----5--5--5--|--
E|--------------------------|-------------------------|--



E|---------------------------|------------------------|--
B|---------------------------|------------------------|--
G|----2----------------------|------------------------|--
D|---------------------------|------------------------|--
A|---------------------------|------------------------|--
E|---------------------------|------------------------|--



E|--------------------------|-------------------------|--
B|--------------------------|-------------------------|--
G|--------------------------|-------------------------|--
D|--4--4--4--4--------------|--4--4--4----------------|--
A|--2--2--2--2--5--5--5--5--|--2--2--2--5----5--5--5--|--
E|--------------------------|-------------------------|--
http://www.guitartabcreator.com
Guitar Tab Creator is intended to store guitar tab created through the tool. It currently does not support in-line text editing. Any text you place in here will be lost. If you need to comment on your tab, please use the "Tab Notes" section located below.