One Way Street (lead guitar)

(/) Slide Up  (\) Slide Down  (h) Hammer On  (p) Pull Off  (b) Bend (r) Release (v) Vibrato
E|---------------------------|----------------|----------10------|----------------|------|-----
B|---------------------------|----------------|----------7-------|----------------|------|-----
G|---------------------------|----------------|------------------|----------------|------|-----
D|------------4----6--4h6p4--|----------------|------------------|----------------|------|-----
A|----2--4/6-----------------|----------------|------------------|----------------|------|-----
E|---------------------------|----------------|------------------|----------------|------|-----



E|--------------------|--
B|------7--------7----|--
G|--------------------|--
D|--------------------|--
A|--------------------|--
E|--------------------|--



E|-------------------7----|----7--------------|----------7------|----------7--7------|--
B|--------7p5--------5h7--|----5h7------------|----------7------|----------7--7------|--
G|------------------------|-------------------|-----------------|--------------------|--
D|------------------------|-------------------|-----------------|--------------------|--
A|------------------------|-------------------|-----------------|--------------------|--
E|------------------------|-------------------|-----------------|--------------------|--



E|----------------|--------------------------|--------------------|--
B|----------------|--------------------------|--------------------|--
G|----------------|--------------------------|--------------------|--
D|----------------|--------4--4--4--4--4--4--|--4----4----4----4--|--
A|----------------|--------2--2--2--2--2--2--|--2----2----2----2--|--
E|----------------|--------------------------|--------------------|--



E|--------------------|------------------|---------------------|------------------------
B|--10b12r10----------|------------------|---------------------|-----------------3b5r3--
G|------------9b11r9--|------------------|---------------------|---------2--4-----------
D|--------------------|----9\7----2h4p2--|----------2h4--2--0--|--2h4p2-----------------
A|--------------------|------------------|---------------------|------------------------
E|--------------------|------------------|---------------------|------------------------



E|-------------------------|------------------------------------|------------------------|--
B|------------3----2-------|------------------------------------|------------------------|--
G|----------------------4--|--2----1----------------------------|------------------------|--
D|-------------------------|------------4----0h2----0h2----0h2--|--0h2--2p0--------------|--
A|-------------------------|------------------------------------|------------------------|--
E|-------------------------|------------------------------------|------------------------|--



E|---------7-----------7--|--------------------7--|-------------------|----------------------|--
B|----7b9---------7b9-----|----7b9r7------7b9-----|------7b9r7--------|--7b10----------------|--
G|------------------------|-----------------------|-------------------|----------------------|--
D|------------------------|-----------------------|-------------------|----------------------|--
A|------------------------|-----------------------|-------------------|----------------------|--
E|------------------------|-----------------------|-------------------|----------------------|--



E|--------------------|---------------------|-------------------7h10p7h10p7h10p7------|--
B|--10r7--------------|---------------------|--7h10p7h10p7----------------------------|--
G|--------------------|--------7h8p7h8p7----|-----------------------------------------|--
D|--------------------|---------------------|-----------------------------------------|--
A|--------------------|---------------------|-----------------------------------------|--
E|--------------------|---------------------|-----------------------------------------|--



E|----9b10r9--7--10--10----10b12--|--r10p7--10--10------7-----------10--11--12--|--
B|--------------------------------|-----------------10-----10b12----------------|--
G|--------------------------------|---------------------------------------------|--
D|--------------------------------|---------------------------------------------|--
A|--------------------------------|---------------------------------------------|--
E|--------------------------------|---------------------------------------------|--



E|------10--11--12--12----12b14----12b14--|--12b14---------------------|-----------------------|--
B|----------------------------------------|--------------------10------|--5h7--10p7h10p7h10p7--|--
G|----------------------------------------|-------------10/11----------|-----------------------|--
D|----------------------------------------|----------------------------|-----------------------|--
A|----------------------------------------|----------------------------|-----------------------|--
E|----------------------------------------|----------------------------|-----------------------|--



E|---------------------------------------------------------------|--
B|--10p7h10p7h10p7h10p7h10p7h10p7h10p7h10p7h10p7h10p7h10p7h10p7--|--
G|---------------------------------------------------------------|--
D|---------------------------------------------------------------|--
A|---------------------------------------------------------------|--
E|---------------------------------------------------------------|--



E|---------------------------------------------------------------|-----
B|--10p7h10p7h10p7h10p7h10p7h10p7h10p7h10p7h10p7h10p7h10p7h10p7--|-----
G|---------------------------------------------------------------|-----
D|---------------------------------------------------------------|-----
A|---------------------------------------------------------------|-----
E|---------------------------------------------------------------|-----



E|--------------------------------|--------------|--
B|--10p7h10p7h10p7--10p7h10p7h10--|--------------|--
G|--------------------------------|--------------|--
D|--------------------------------|--------------|--
A|--------------------------------|--------------|--
E|--------------------------------|--------------|--



E|--------------------|------------------|------------------|---------17p14h17p14h17p14--|--
B|--------------------|------------------|------------------|--17b19---------------------|--
G|------9b10r9--7-----|------------------|------------------|----------------------------|--
D|-----------------9--|------------------|------------------|----------------------------|--
A|--------------------|------------------|------------------|----------------------------|--
E|--------------------|------------------|------------------|----------------------------|--



E|---------17---------17---------------------|--------------------------------------|--
B|--17b19------17b19------17b19r17----14b15--|------15--15--15--15--15--15--15------|--
G|-------------------------------------------|--------------------------------------|--
D|-------------------------------------------|--------------------------------------|--
A|-------------------------------------------|--------------------------------------|--
E|-------------------------------------------|--------------------------------------|--



E|---------------------------------------------------------------------------|--
B|--12h15p12h15p12h15p12h15p12h15p12h15p12h15p12h15p12h15p12h15p12----17b19--|--
G|---------------------------------------------------------------------------|--
D|---------------------------------------------------------------------------|--
A|---------------------------------------------------------------------------|--
E|---------------------------------------------------------------------------|--



E|------17p14h17p14h17p14----|---------17---------17-----------------------|--
B|---------------------------|--17b19------17b19------17b19r17p15------15--|--
G|---------------------------|-------------------------------------16------|--
D|---------------------------|---------------------------------------------|--
A|---------------------------|---------------------------------------------|--
E|---------------------------|---------------------------------------------|--



E|--------------------------------------------------|--------------------------------------------------|--
B|--10--10--10--10--10--10--10--10--10--10--10--10--|--10--10--10--10--10--10--10--10--10--10--10--10--|--
G|--11--11--11--11--11--11--11--11--11--11--11--11--|--11--11--11--11--11--11--11--11--11--11--11--11--|--
D|--------------------------------------------------|--------------------------------------------------|--
A|--------------------------------------------------|--------------------------------------------------|--
E|--------------------------------------------------|--------------------------------------------------|--



E|------------------------------|-------------------------------------|--
B|--17h18----18p17--18----18----|--18p17--18p17--17b19r17p15--12------|--
G|------------------------------|-----------------------------13--11--|--
D|------------------------------|-------------------------------------|--
A|------------------------------|-------------------------------------|--
E|------------------------------|-------------------------------------|--



E|-----------------------|-------------------|---------------------|------------------------|--
B|-----------------------|-----------7-------|-----7b9--7b9--------|------------------------|--
G|-----------------4--4--|------6b8-----8r6--|--4------------------|------------------------|--
D|--4----4----4h6--------|-------------------|---------------------|------------------------|--
A|-----------------------|-------------------|---------------------|------------------------|--
E|-----------------------|-------------------|---------------------|------------------------|--



E|--------------------------------|----------------------7--|--10----10----10----10----10----10--|--
B|----------10------10--------10--|------------10----10-----|------------------------------------|--
G|----9b11----------11--9b11------|------9b11---------------|------------------------------------|--
D|--------------------------------|-------------------------|------------------------------------|--
A|--------------------------------|-------------------------|------------------------------------|--
E|--------------------------------|-------------------------|------------------------------------|--



E|--9----7-----------------------------|----------------------------------|-----
B|------------10----10----12----10h12--|----------------------------------|-----
G|-------------------------------------|--------------7-------------------|-----
D|-------------------------------------|-----9--7--9--------7h9p7---------|-----
A|-------------------------------------|-----------------9---------9------|-----
E|-------------------------------------|--7---------------------------10--|-----



E|---------------------------|---------17---------17---------17---------17--|--
B|---------------------------|--17b19------17b19------17b19------17b19------|--
G|-----9--7--9--9b11--7------|----------------------------------------------|--
D|---------------------------|----------------------------------------------|--
A|--7------------------------|----------------------------------------------|--
E|---------------------------|----------------------------------------------|--



E|--------------------------------------------------|------------------------|-----
B|--17b19r17p16--14b15r14-------------12--12----12--|------------------------|-----
G|-------------------------16--14b16----------------|------------------------|-----
D|--------------------------------------------------|--4----4--4--4--4----4--|-----
A|--------------------------------------------------|--2----2--2--2--2----2--|-----
E|--------------------------------------------------|------------------------|-----



E|--------------------|-------------------------|-------------------|--------------------------|--
B|--------------------|-------------------------|-------------------|--------------------------|--
G|--------------------|-------------------------|-------------------|--------------------------|--
D|------------4----4--|--4--4--4--4--4--4----4--|----------------4--|--4----4--4--4--4------4--|--
A|------------2----2--|--2--2--2--2--2--2----2--|----------------2--|--2----2--2--2--2------2--|--
E|--------------------|-------------------------|-------------------|--------------------------|--



E|----------------|------------------|------------------|----------------------------|--
B|----------------|------------------|------------------|---------------------10b12--|--
G|----------------|------------------|------------------|----------------------------|--
D|----------------|------------------|------------------|----4--4--4--4--4-----------|--
A|----------------|------------------|------------------|----2--2--2--2--2-----------|--
E|----------------|------------------|------------------|----------------------------|--



E|-----------------7--|--10--7---------------------|----------------------|-----
B|----------7--10-----|---------10--7--------------|----------10b12----7--|-----
G|--------------------|----------------7-----------|----------------------|-----
D|--------------------|-------------------9--7--9--|----------------------|-----
A|--------------------|----------------------------|----------------------|-----
E|--------------------|----------------------------|----------------------|-----



E|-----------------------------|----------7--------|--7------7------7-------------|--
B|--10b12----10--7-------------|---------------10--|-----10------------10--10b12--|--
G|------------------9--7-------|-------------------|------------------------------|--
D|--------------------------9--|-------------------|------------------------------|--
A|-----------------------------|-------------------|------------------------------|--
E|-----------------------------|-------------------|------------------------------|--
http://www.guitartabcreator.com
Guitar Tab Creator is intended to store guitar tab created through the tool. It currently does not support in-line text editing. Any text you place in here will be lost. If you need to comment on your tab, please use the "Tab Notes" section located below.