One Way Street Guitar Solo (3.31 - 4.00)

(/) Slide Up  (\) Slide Down  (h) Hammer On  (p) Pull Off  (b) Bend (r) Release (v) Vibrato
E|----------------------------|-----------8----------------------|-------
B|--11b13--11b13v------11b13--|----11b13-----11--8---------------|-------
G|----------------------------|---------------------10--10b12----|-------
D|----------------------------|----------------------------------|-------
A|----------------------------|----------------------------------|-------
E|----------------------------|----------------------------------|-------



E|-----------8---------------------------|----------------------------------------|--
B|----11b13-----11--8------8-------------|---------8--11--8------8----------------|--
G|---------------------10-----10--8------|--8--10------------10-----10--8---------|--
D|-----------------------------------10--|---------------------------------10--8--|--
A|---------------------------------------|----------------------------------------|--
E|---------------------------------------|----------------------------------------|--



E|--------------------------------------|-------------------8--11p8-----11p8-----|--
B|----------------------------8------8--|--11p8------8--11-----------8--------8--|--
G|--------------8--10--8--10-----10-----|--------10------------------------------|--
D|----10--8p10--------------------------|----------------------------------------|--
A|--------------------------------------|----------------------------------------|--
E|--------------------------------------|----------------------------------------|--



E|--11p8-----11p8-----11p8-----11p8-----|--11p8-----8---------11--8--11--13--11--13--|--
B|--------8--------8--------8--------8--|--------8-----11b13-------------------------|--
G|--------------------------------------|--------------------------------------------|--
D|--------------------------------------|--------------------------------------------|--
A|--------------------------------------|--------------------------------------------|--
E|--------------------------------------|--------------------------------------------|--



E|--13b15--13b15------------13b15--|----13b15--13--11--------------------|--
B|---------------------------------|-------------------13--11--11--11----|--
G|---------------------------------|-------------------------------------|--
D|---------------------------------|-------------------------------------|--
A|---------------------------------|-------------------------------------|--
E|---------------------------------|-------------------------------------|--



E|-----------------------------------------------------|-----------------------------8------------|--
B|--10/11--11--11--11--11--11--10--10--10--10--10--10--|--8--8--8--8--8--8--------8------------8--|--
G|--11-12--12--12--12--12--12--10--10--10--10--10--10--|--8--8--8--8--8--8--8b10--------8--10-----|--
D|-----------------------------------------------------|------------------------------------------|--
A|-----------------------------------------------------|------------------------------------------|--
E|-----------------------------------------------------|------------------------------------------|--



E|--------------------------------|-------------------------------------|-----
B|--------------------------------|-------------------------------------|-----
G|----------8--------8--10p8------|--8--10b12------10b12r10p8------8----|-----
D|--10---------10-------------10--|----------------------------10-------|-----
A|--------------------------------|-------------------------------------|-----
E|--------------------------------|-------------------------------------|-----



E|-------------------------|---------------------------|--
B|-------------------------|---------------------------|--
G|--------------------8----|--10b12--10--8-------------|--
D|--10----8----8--10-------|----------------10--8------|--
A|-------------------------|---------------------------|--
E|-------------------------|---------------------------|--
http://www.guitartabcreator.com
Guitar Tab Creator is intended to store guitar tab created through the tool. It currently does not support in-line text editing. Any text you place in here will be lost. If you need to comment on your tab, please use the "Tab Notes" section located below.