Nostalgia

(/) Slide Up  (\) Slide Down  (h) Hammer On  (p) Pull Off  (b) Bend (r) Release (v) Vibrato

E|--------------------------|----------------------2--|--
B|--------------------------|----------------------2--|--
G|--------------------------|-----------------2-------|--
D|-----2--4--2--4--2-----2--|--4--2--4--2-----2h4-----|--
A|--2-----------------2-----|--------------2----------|--
E|--------------------------|-------------------------|--



E|---------------------------|--------14----14-------|-----
B|--9------------------------|--------14----14-------|--9--
G|--9------------------------|--------14----14-------|--9--
D|--9------------------------|--------14----14----9--|--9--
A|--7------------------------|-----------------------|--7--
E|---------------------------|-----------------------|-----
http://www.guitartabcreator.com
Guitar Tab Creator is intended to store guitar tab created through the tool. It currently does not support in-line text editing. Any text you place in here will be lost. If you need to comment on your tab, please use the "Tab Notes" section located below.