Jake Allen - Long Lost Heart Intro transcription

(/) Slide Up  (\) Slide Down  (h) Hammer On  (p) Pull Off  (b) Bend (r) Release (v) Vibrato
E|--0---------------|------------------------|--0----------------|-----------0--0--0--0--0--|--
B|--0---------------|------------------------|--0----------------|-----------0--0--0--0--0--|--
G|--0---------------|------------------------|--0----------------|-----------0--0--0--0--0--|--
D|--0----3--0--0--2-|--3--0--3--0--0--2------|--0----3--0--0--2--|--3--0--3-----0-----0-----|--
A|--0----3--0--0--2-|--3--0--3--0--0--2------|--0----3--0--0--2--|--3--0--3-----0-----0-----|--
E|--0----3--0--0--2/|--3--0--3--0--0--2------|--0----3--0--0--2--|--3--0--3-----0-----0-----|--



E|-----------------|----------------------|---------------|--------------------|--
B|-----------------|----------------------|---------------|--------------------|--
G|--5---------5----|------------5---------|--5------------|--------5--5--5--5--|--
D|--5---------5----|------------5--7------|--5----------7/|--8--8--5--5--5--5--|--
A|--3----6p3--3--5/|--6p3--6p3--3--5------|--3--6p3--3--5-|--6--6--3--3--3--3--|--
E|-----------------|----------------------|---------------|--------------------|--
http://www.guitartabcreator.com
Guitar Tab Creator is intended to store guitar tab created through the tool. It currently does not support in-line text editing. Any text you place in here will be lost. If you need to comment on your tab, please use the "Tab Notes" section located below.