Gimme Shelter (Intro Lead Guitar)

(/) Slide Up  (\) Slide Down  (h) Hammer On  (p) Pull Off  (b) Bend (r) Release (v) Vibrato


E|----------------------------------------------------------------|--
B|----------------------------------------------------------------|--
G|----------------------------------------------------------------|--
D|--13h15p13h15p13h15p13h15p13h15p13h15p13h15p13h15p13h15----15v--|--
A|----------------------------------------------------------------|--
E|----------------------------------------------------------------|--



E|------------------------------------|----------------------------------|--
B|------------------------------------|----------------------------------|--
G|------------------------------------|----------------------------------|--
D|-----------13h15--13----13----------|----------------------------------|--
A|----13h15-------------------15--13--|--11h13v-------------------11h13--|--
E|------------------------------------|--------------------11h13---------|--



E|-------------------------------------------|-------------------------------|--
B|-------------------------------------------|--16b18------18r16--13---------|--
G|----------------13--15--15b17r15p13--15----|------------------------15b17--|--
D|---------13h15-----------------------------|-------------------------------|--
A|--13/15------------------------------------|-------------------------------|--
E|-------------------------------------------|-------------------------------|--



E|--------------------------------|---------------13-------------------------|--
B|--------------------------------|-----------13------16--13--16b18--16--13--|--
G|----15--13--15--13--13----------|----13h14---------------------------------|--
D|------------------------15--15--|------------------------------------------|--
A|--------------------------------|------------------------------------------|--
E|--------------------------------|------------------------------------------|--



E|--16b18----16b18----16b18----16b18----16--13--|--13----------
B|----------------------------------------------|--------------
G|----------------------------------------------|--------------
D|----------------------------------------------|--------------
A|----------------------------------------------|--------------
E|----------------------------------------------|--------------
http://www.guitartabcreator.com
Guitar Tab Creator is intended to store guitar tab created through the tool. It currently does not support in-line text editing. Any text you place in here will be lost. If you need to comment on your tab, please use the "Tab Notes" section located below.