Gimme Shelter (4.50 to end)

(/) Slide Up  (\) Slide Down  (h) Hammer On  (p) Pull Off  (b) Bend (r) Release (v) Vibrato
E|------------------|--13--------16r15--13--13--|------------15--13--|--20r18----------18--16--|--
B|--------------13--|---------------------------|--------------------|-------------------------|--
G|------------------|---------------------------|--------------------|-------------------------|--
D|------------------|---------------------------|--------------------|-------------------------|--
A|------------------|---------------------------|--------------------|-------------------------|--
E|------------------|---------------------------|--------------------|-------------------------|--



E|--18b20--18--16--18--18b20--18--16h18p16------|-----------------------------|----------------|--
B|------------------------------------------18--|----18-----------------------|----------------|--
G|----------------------------------------------|-------------------------13--|----------------|--
D|----------------------------------------------|------------------13/15------|----15--15------|--
A|----------------------------------------------|-----------------------------|----------------|--
E|----------------------------------------------|-----------------------------|----------------|--



E|-------------------------------|--------------------------------------------|--
B|-------------------------------|--16b18----18r16------16b18--18r16----------|--
G|--15b17r15----------13--15p13--|------------------13----------------13------|--
D|-------------------------------|----------------------------------------15--|--
A|-------------------------------|--------------------------------------------|--
E|-------------------------------|--------------------------------------------|--



E|-------------------|-------------------|--------------------------------------------|--
B|-------------------|-------------------|--------------------------------------------|--
G|------------13h15--|------------15p13--|--15b17----15b17r15p13--15b17--15b17r15p13--|--
D|-------------------|-------------------|--------------------------------------------|--
A|-------------------|-------------------|--------------------------------------------|--
E|-------------------|-------------------|--------------------------------------------|--



E|--------------|-----------------------------------------------------------------|--
B|--------------|--16b18--16b18--16b18--16b18--16b18--16b18--16b18--16b18--16b18--|--
G|--------------|-----------------------------------------------------------------|--
D|--------------|-----------------------------------------------------------------|--
A|--------------|-----------------------------------------------------------------|--
E|--------------|-----------------------------------------------------------------|--



E|-------------------------------------------------------------------------------|--
B|--16b18--16b18--16b18--16b18--16b18--16b18--16b18--16b18--16b18--16b18--16b18--|--
G|-------------------------------------------------------------------------------|--
D|-------------------------------------------------------------------------------|--
A|-------------------------------------------------------------------------------|--
E|-------------------------------------------------------------------------------|--



E|--------------------------------------------------------------------------------------|--
B|--16b18--16b18--16b18--16b18--16b18--16b18--16b18--16b18--16b18--16b18--16b18--16b18--|--
G|--------------------------------------------------------------------------------------|--
D|--------------------------------------------------------------------------------------|--
A|--------------------------------------------------------------------------------------|--
E|--------------------------------------------------------------------------------------|--



E|---------13---------13---------13-------------|--
B|--16b18------16b18------16b18------16b18--16--|--
G|----------------------------------------------|--
D|----------------------------------------------|--
A|----------------------------------------------|--
E|----------------------------------------------|--



E|--15b16--16--16--15b16--16--16--15b16--16--16--15b16--16--16--|--
B|--------------------------------------------------------------|--
G|--------------------------------------------------------------|--
D|--------------------------------------------------------------|--
A|--------------------------------------------------------------|--
E|--------------------------------------------------------------|--



E|--15b16--16--16--15b16--16--16--15b16--16--16--15b16--16--16--|--
B|--------------------------------------------------------------|--
G|--------------------------------------------------------------|--
D|--------------------------------------------------------------|--
A|--------------------------------------------------------------|--
E|--------------------------------------------------------------|--



E|--15b16--16--16--15b16--16--16--15b16--16--16--15b16--16--16--|--
B|--------------------------------------------------------------|--
G|--------------------------------------------------------------|--
D|--------------------------------------------------------------|--
A|--------------------------------------------------------------|--
E|--------------------------------------------------------------|--



E|--15b16--16--16--15b16--16--16--15b16--16--16--15b16------15--|--
B|--------------------------------------------------------------|--
G|--------------------------------------------------------------|--
D|--------------------------------------------------------------|--
A|--------------------------------------------------------------|--
E|--------------------------------------------------------------|--



E|--16b18--16b18--16b18--16b18--16b18--16b18----16b18--18--|--
B|---------------------------------------------------------|--
G|---------------------------------------------------------|--
D|---------------------------------------------------------|--
A|---------------------------------------------------------|--
E|---------------------------------------------------------|--



E|--16b18--16b18--13--13--16b18--13--13--16b18--13--13--16b18--|--
B|----------------13-------------13-------------13-------------|--
G|-------------------------------------------------------------|--
D|-------------------------------------------------------------|--
A|-------------------------------------------------------------|--
E|-------------------------------------------------------------|--



E|--13--13--16b18--13--13--16b18--13--13--16b18--13--13--16b18--|--
B|--13-------------13-------------13-------------13-------------|--
G|--------------------------------------------------------------|--
D|--------------------------------------------------------------|--
A|--------------------------------------------------------------|--
E|--------------------------------------------------------------|--



E|--13--13--16b18--13--13--16b18--13--13--16b18--13----|---------------------------------------|--
B|--13-------------13-------------13-------------13----|---------16----------------------------|--
G|-----------------------------------------------------|--15b17------15b17r15p13--15-----------|--
D|-----------------------------------------------------|--------------------------------13h15--|--
A|-----------------------------------------------------|---------------------------------------|--
E|-----------------------------------------------------|---------------------------------------|--



E|----------------------------------|------------------------------------------------------
B|----------------------------------|--16--------------------------------------------------
G|--13h15--13v--------13h15--15b17--|------15--13h15p13--13--15b17r13--15--15b17r15p13-----
D|----------------------------------|------------------------------------------------------
A|----------------------------------|------------------------------------------------------
E|----------------------------------|------------------------------------------------------



E|--------------------|-----------------------------------------------------------------------
B|--------------------|-----------------------------------------------------------------------
G|--13--15b17r15--15--|--15b17r15--13--13--15b17r15p13--15--15b17r15p13--13--15b17r15p13--15--
D|--------------------|-----------------------------------------------------------------------
A|--------------------|-----------------------------------------------------------------------
E|--------------------|-----------------------------------------------------------------------



E|--------------------------|----------------------------------------------------------------------------|--
B|--------------------------|--16b18--16b18--16--13------------16b18r16p13----------16b18--16b18--16b18--|--
G|--15b17r15p13h15--13--15--|------------------------15--13-----------------15--13-----------------------|--
D|--------------------------|----------------------------------------------------------------------------|--
A|--------------------------|----------------------------------------------------------------------------|--
E|--------------------------|----------------------------------------------------------------------------|--



E|-------------13-------------------------------------------------------------------------------|--
B|--16b18--16------16--13--16p13----------------------------------------------------------------|--
G|--------------------------------15--15b17r15p13------13--15------------------13--15b17r15p13--|--
D|-------------------------------------------------15-------------------13h15-------------------|--
A|---------------------------------------------------------------13h15--------------------------|--
E|----------------------------------------------------------------------------------------------|--



E|-----------------------------------------------------------------|--------------------------------
B|-----------------------------------------------------------------|--------------------------------
G|--13h15--13h15p13\12--13--13--15--15--13--12--13h15--13--12--13--|--13h15--13h15--12--12--13--13--
D|-----------------------------------------------------------------|--------------------------------
A|-----------------------------------------------------------------|--------------------------------
E|-----------------------------------------------------------------|--------------------------------



E|----------------------------------------------------------|--
B|---------13---------13--15--16--16--16---------16--18b20--|--
G|--15b17------15b17----------------------15/17-------------|--
D|----------------------------------------------------------|--
A|----------------------------------------------------------|--
E|----------------------------------------------------------|--



E|---------13--13---------13---------13---------13--|---------13---------13---------13---------13--|--
B|--16b18----------16b18------16b18------16b18------|--16b18------16b18------16b18------16b18------|--
G|--------------------------------------------------|----------------------------------------------|--
D|--------------------------------------------------|----------------------------------------------|--
A|--------------------------------------------------|----------------------------------------------|--
E|--------------------------------------------------|----------------------------------------------|--



E|---------13---------13---------13---------13--|---------13---------13---------13---------13--
B|--16b18------16b18------16b18------16b18------|--16b18------16b18------16b18------16b18------
G|----------------------------------------------|----------------------------------------------
D|----------------------------------------------|----------------------------------------------
A|----------------------------------------------|----------------------------------------------
E|----------------------------------------------|----------------------------------------------



E|---------13---------13---------13---------13--|--13--13--13--13-------------13-------------13--
B|--16b18------16b18------16b18------16b18------|--13--13--13--13---------13-------------13------
G|----------------------------------------------|------------------15b17----------15b17----------
D|----------------------------------------------|------------------------------------------------
A|----------------------------------------------|------------------------------------------------
E|----------------------------------------------|------------------------------------------------



E|--13--13--13--13-------------13-------------13--13--13--13--13--13--13--13--13--|--
B|--13--13--13--13---------13-------------13------13--13--13--13--13--13--13--13--|--
G|------------------15b17----------15b17------------------------------------------|--
D|--------------------------------------------------------------------------------|--
A|--------------------------------------------------------------------------------|--
E|--------------------------------------------------------------------------------|--



E|--13--13--13--13--13--13--13--13----------------
B|--13--13--13--13--13--13--13--13----------------
G|------------------------------------------------
D|------------------------------------------------
A|------------------------------------------------
E|------------------------------------------------



E|----------|-------------------------------------|----------------------------------------
B|----------|--15---------------------------------|--16--------------------------------16--
G|----------|--15--13v-----------------13--15b17--|------15b17r15p13--15----13--15b17------
D|------13--|-------------------13/15-------------|----------------------------------------
A|--15------|-------------------------------------|----------------------------------------
E|----------|-------------------------------------|----------------------------------------



E|----------------------------------|---------------------------------------------------
B|----------------------------------|---------------------------------------------------
G|--15b17r15p13--12--13--15--15b17--|--13--15p13------13--15b17r15p13--13--15b17r15p13--
D|----------------------------------|-------------15------------------------------------
A|----------------------------------|---------------------------------------------------
E|----------------------------------|---------------------------------------------------



E|----------------------------------------------------|------------------------------------------
B|----------------------------------------------------|--------------------------------------16--
G|--15b17r15p13--13h15--13----------------------------|----------------13h15--15--13--15/17------
D|-----------------------------15p13------------------|---------13h15----------------------------
A|------------------------------------15--14--13------|--13h15-----------------------------------
E|------------------------------------------------16--|------------------------------------------



E|----------------------|--13--
B|--16--16--16--16--16--|--13--
G|--17--17--17--17--17--|------
D|----------------------|------
A|----------------------|------
E|----------------------|------



E|--16b18--16b18--|--16b18--16b18--16b18r16--13--13---------13---------13---------13---------13--|--
B|----------------|----------------------------------16b18------16b18------16b18------16b18------|--
G|----------------|------------------------------------------------------------------------------|--
D|----------------|------------------------------------------------------------------------------|--
A|----------------|------------------------------------------------------------------------------|--
E|----------------|------------------------------------------------------------------------------|--



E|--
B|--
G|--
D|--
A|--
E|--
http://www.guitartabcreator.com
Guitar Tab Creator is intended to store guitar tab created through the tool. It currently does not support in-line text editing. Any text you place in here will be lost. If you need to comment on your tab, please use the "Tab Notes" section located below.