Gimme Shelter (3rd Chorus Lead Guitar + 2nd solo)

(/) Slide Up  (\) Slide Down  (h) Hammer On  (p) Pull Off  (b) Bend (r) Release (v) Vibrato
E|---------------------|-----------------|--------------|--------------------------|--
B|---------------------|-----------------|--------------|-------------------1------|--
G|---------------------|-----------------|--------------|--------------3b5---------|--
D|--1h3-----------1h3--|--p1-------------|--------------|-------1h3----------------|--
A|-----------1h3-------|----------3p2p1--|--------------|--1h3---------------------|--
E|---------------------|-----------------|--------------|--------------------------|--



E|----------------------------|-----------------------------|-------------------------|--
B|---------1b2r1-----1--------|--------------------4--6--6--|--6b8--6b8------6b9------|--
G|------3---------3-----3--1--|--3b5r3p1h3----3/5-----------|-------------------------|--
D|----------------------------|-----------------------------|-------------------------|--
A|----------------------------|-----------------------------|-------------------------|--
E|----------------------------|-----------------------------|-------------------------|--



E|----------------------|-------------------------------------------|------------------------|-----
B|----------------------|--------------------------16---------------|------13--16b18--16b18--|-----
G|------------15p14p13--|--13--13h15----13--15b17------15b17r15p13--|--15--------------------|-----
D|----------------------|-------------------------------------------|------------------------|-----
A|----------------------|-------------------------------------------|------------------------|-----
E|----------------------|-------------------------------------------|------------------------|-----



E|---------13--------------------------|--16b18--16--13------13--16b18r16p13------13--16b18--16b18--
B|--16b17------16b18--16b18----16--13--|-----------------16-------------------16--------------------
G|-------------------------------------|------------------------------------------------------------
D|-------------------------------------|------------------------------------------------------------
A|-------------------------------------|------------------------------------------------------------
E|-------------------------------------|------------------------------------------------------------



E|----16b18r16p13------13--16p13------13-----------------------|--
B|-----------------16-------------16------16-------------------|--
G|--------------------------------------------15--15b17r15p13--|--
D|-------------------------------------------------------------|--
A|-------------------------------------------------------------|--
E|-------------------------------------------------------------|--



E|---------------------------------------------|--------------------------------------------|--
B|---------------------------------------------|--------------------------------------------|--
G|--13h15----13--------------------------------|----------------15--13----------------13----|--
D|---------------15p13----13-------------------|---------13h15--------------13h14h15--------|--
A|----------------------------15p13------13----|--13/15-----------------15------------------|--
E|-----------------------------------16--------|--------------------------------------------|--



E|------------------------------------------------|-------------13--------------------------------
B|------------------------------------------------|---------13------------------------------------
G|--------15--13--12--15b17--15b17--15b17--15b17--|--15b17----------15b17r15p13--13--15b17r15p13--
D|--13--------------------------------------------|-----------------------------------------------
A|------------------------------------------------|-----------------------------------------------
E|------------------------------------------------|-----------------------------------------------



E|-----------------------|-------------------------------------------------------|--
B|-----------------------|---------------------------------------------------16--|--
G|--13--15b17r15p13--13--|--15b17r15p13--13--15b17r15p13--13--15--13--15/17------|--
D|-----------------------|-------------------------------------------------------|--
A|-----------------------|-------------------------------------------------------|--
E|-----------------------|-------------------------------------------------------|--



E|----------------------------------------16--|--15--16--18--18--18--18b20--18b20--18b20--18b20--|--
B|--18--18--18----18------16--16--16--18------|--------------------------------------------------|--
G|--------------------17----------------------|--------------------------------------------------|--
D|--------------------------------------------|--------------------------------------------------|--
A|--------------------------------------------|--------------------------------------------------|--
E|--------------------------------------------|--------------------------------------------------|--



E|--18b20------18b20--16h18p16--18p16--|--15---------------------16b18--16--13------|--
B|-------------------------------------|-----------------18---------------------16--|--
G|-------------------------------------|----------15/17------17---------------------|--
D|-------------------------------------|--------------------------------------------|--
A|-------------------------------------|--------------------------------------------|--
E|-------------------------------------|--------------------------------------------|--



E|--13--------------------------------------------------------------------------|--
B|------16p13-------------------------------------------------------------------|--
G|-------------15b17r15p13------13h15p13------13--------------------------------|--
D|--------------------------15------------15------15p13h15p13-------------------|--
A|-------------------------------------------------------------15p13--15p13\11--|--
E|------------------------------------------------------------------------------|--



E|------------------------------------|-----
B|--------------------13--13--13------|-----
G|------------------------------------|-----
D|----------------13------------------|-----
A|--11--11h13/15----------------------|-----
E|------------------------------------|-----
http://www.guitartabcreator.com
Guitar Tab Creator is intended to store guitar tab created through the tool. It currently does not support in-line text editing. Any text you place in here will be lost. If you need to comment on your tab, please use the "Tab Notes" section located below.