Gimme Shelter (1st guitar solo)

(/) Slide Up  (\) Slide Down  (h) Hammer On  (p) Pull Off  (b) Bend (r) Release (v) Vibrato


E|---------13---------13---------13---------13---------13---------13---------13---------13--|--
B|--16b18------16b18------16b18-------------13---------13---------13---------13---------13--|--
G|-----------------------------------15b17------15b17------15b17------15b17------15b17------|--
D|------------------------------------------------------------------------------------------|--
A|------------------------------------------------------------------------------------------|--
E|------------------------------------------------------------------------------------------|--



E|--16b18--16--16b18--16--16b18--16--|--16b18r16----13--16p13------13h16p13--------|--
B|-----------------------------------|-------------------------16------------16----|--
G|-----------------------------------|---------------------------------------------|--
D|-----------------------------------|---------------------------------------------|--
A|-----------------------------------|---------------------------------------------|--
E|-----------------------------------|---------------------------------------------|--



E|--13h16p13------13h16p13------13h16p13------13h16p13------|--
B|------------16------------16------------16------------16--|--
G|----------------------------------------------------------|--
D|----------------------------------------------------------|--
A|----------------------------------------------------------|--
E|----------------------------------------------------------|--



E|--16b18r16--13------13---------13-------------------------------------------|--
B|----------------16------16b18------16b18------------------------------------|--
G|------------------------------------------15b17r15--13------13--------------|--
D|--------------------------------------------------------15------15--13--15--|--
A|----------------------------------------------------------------------------|--
E|----------------------------------------------------------------------------|--



E|-------------------13--------------------------------|--------------------------------------------
B|---------------13------16--13--16b18--16--13---------|--------------------------------------------
G|--------13h14---------------------------------15b17--|--17r15--13--15------------13h15p13---------
D|--15-------------------------------------------------|-----------------13h14h15------------15-----
A|-----------------------------------------------------|--------------------------------------------
E|-----------------------------------------------------|--------------------------------------------



E|-------------13--------------------------|--16b18--16--16b18--16--16b18--16b17--|--17--
B|---------13------16p13--16b18----16--13--|--------------------------------------|------
G|--13h14----------------------------------|--------------------------------------|------
D|-----------------------------------------|--------------------------------------|------
A|-----------------------------------------|--------------------------------------|------
E|-----------------------------------------|--------------------------------------|------
http://www.guitartabcreator.com
Guitar Tab Creator is intended to store guitar tab created through the tool. It currently does not support in-line text editing. Any text you place in here will be lost. If you need to comment on your tab, please use the "Tab Notes" section located below.