Dream on (2.30 - 3.02)

(/) Slide Up  (\) Slide Down  (h) Hammer On  (p) Pull Off  (b) Bend (r) Release (v) Vibrato


E|--------------------------|--------------------------|--
B|--------------------------|--------------------------|--
G|--6--5--6--5--6--5--6--5--|--6--5--6--5--6--5--6--5--|--
D|--------------------------|--------------------------|--
A|--------------------------|--------------------------|--
E|--------------------------|--------------------------|--



E|-------------------------------------------|------------------------13v--------|-
B|-----9------9-----------11------11---------|--13-------13-------13-------------|-
G|-------9------9------------9-------9-------|-----12-------12-13----------------|-
D|--10-----10-----10-9/10------10------10/13-|--------13-------------------------|-
A|-------------------------------------------|-----------------------------------|-
E|-------------------------------------------|-----------------------------------|-



E|--16b18r16----16---15---13--16-15--13h15p13--|------------------------------------------|-
B|---------------------------------------------|--16-13----13-----------------------------|-
G|---------------------------------------------|--------15----15-13\12h13p12/10-10---/8---|-
D|---------------------------------------------|------------------------------------------|-
A|---------------------------------------------|------------------------------------------|-
E|---------------------------------------------|------------------------------------------|-



E|---------------------------------------------|--------------------13v--------------|-
B|-----9-------9------------11------11---------|--13-------13----13------------------|-
G|-------10------10------------9-------9-------|-----12-------12-------------3b5r3b5-|-
D|--10------10------10-9/10------10------10/13-|--------13---------------------------|-
A|---------------------------------------------|-------------------------------------|-
E|---------------------------------------------|-------------------------------------|-



E|-----------------------------------------|-
B|-----1-2-1h2p1---1----1------------------|-
G|---------------3----3---3h4p3p1---1------|-
D|--------------------------------3---3----|-
A|-----------------------------------------|-
E|-----------------------------------------|-
http://www.guitartabcreator.com
Guitar Tab Creator is intended to store guitar tab created through the tool. It currently does not support in-line text editing. Any text you place in here will be lost. If you need to comment on your tab, please use the "Tab Notes" section located below.