Cancer (guitar solo)

(/) Slide Up  (\) Slide Down  (h) Hammer On  (p) Pull Off  (b) Bend (r) Release (v) Vibrato
E|------------------|-------------------------|------------------|---------------|--
B|------------------|-------------------------|------------------|---------------|--
G|----4b6-----------|--2--4--2--4b6----4b6r4--|--2---------2--4--|--0----2----5--|--
D|-------------2h4--|-------------------------|-------2h4--------|---------------|--
A|------------------|-------------------------|------------------|---------------|--
E|------------------|-------------------------|------------------|---------------|--



E|----------------------------------|----------------------|--2-------5-----------|--|--
B|--------6--5-------8--------------|----------------------|----------------------|--|--
G|--------------7b9-----7b9r7p5-----|----------2--4b6------|-----4h6-----4b6r4b6--|--|--
D|--5--7-------------------------7--|--2--2h4--------------|----------------------|--|--
A|----------------------------------|----------------------|----------------------|--|--
E|----------------------------------|----------------------|----------------------|--|--



E|----------------------------------|----------------------|---------------------|--
B|--------6--5-------8--------------|----------------------|---------------------|--
G|--------------7b9-----7b9r7p5-----|----------2--4b6------|--h9p6r4b6h12p6r4b6--|--
D|--5--7-------------------------7--|--2--2h4--------------|---------------------|--
A|----------------------------------|----------------------|---------------------|--
E|----------------------------------|----------------------|---------------------|--



E|-----------------------------------|---------------|---------------------------------|--
B|-----------------------------------|---------------|-------6--5-------8--------------|--
G|--9p6h9p6--0h9p6h9p6h9p6h9p6--6r4--|--0----2----5--|-------------7b9-----7b9r7p5-----|--
D|-----------------------------------|---------------|----7-------------------------7--|--
A|-----------------------------------|---------------|---------------------------------|--
E|-----------------------------------|---------------|---------------------------------|--



E|------------------------|--14-------------------14---------|--14----------------------------|--
B|------------------------|------14--17--17b19--------17b19--|------17p14---------------------|--
G|---------14--16b18------|----------------------------------|-------------16--14-------------|--
D|--14h16-----------------|----------------------------------|---------------------16--14h16--|--
A|------------------------|----------------------------------|--------------------------------|--
E|------------------------|----------------------------------|--------------------------------|--



E|--17----------------------------17--------------|----------17----------------------------|--
B|------20--17------------------------20--17------|--------------20--17--------------------|--
G|--------------19--17------17----------------19--|--17------------------19--17------17----|--
D|----------------------19------------------------|------19----------------------19--------|--
A|------------------------------------------------|----------------------------------------|--
E|------------------------------------------------|----------------------------------------|--



E|------------------------------|--------------------------------|------------------14------|--
B|-------------------17---------|----------------17b19----17b21--|--17------14--------------|--
G|----14--16--16b18------18r16--|--14h16p14----------------------|--------------17----------|--
D|------------------------------|------------16------------------|--------------------------|--
A|------------------------------|--------------------------------|--------------------------|--
E|------------------------------|--------------------------------|--------------------------|--



E|---------15---------17---------|-------------19--19--19--19--19--|--
B|-------------------------------|--20-----------------------------|--
G|--15/16------16/17------17/18--|------18/19----------------------|--
D|-------------------------------|---------------------------------|--
A|-------------------------------|---------------------------------|--
E|-------------------------------|---------------------------------|--
http://www.guitartabcreator.com
Guitar Tab Creator is intended to store guitar tab created through the tool. It currently does not support in-line text editing. Any text you place in here will be lost. If you need to comment on your tab, please use the "Tab Notes" section located below.