Anxious guitar solo

(/) Slide Up  (\) Slide Down  (h) Hammer On  (p) Pull Off  (b) Bend (r) Release (v) Vibrato

E|---------------14------------------------------|--------------|----17b19----------17----------|--
B|----17b19----------17--14----------------------|--------------|-------------------------------|--
G|---------------------------16b18r16p14h16------|--------------|-------------------------------|--
D|-----------------------------------------------|--------------|-------------------------------|--
A|-------------------------------------------16--|--------------|-------------------------------|--
E|-----------------------------------------------|--------------|-------------------------------|--



E|------------------|------14b16----14b16----14b16----14b16----14b17--|----------------------|--
B|------------------|-------------------------------------------------|----------------------|--
G|------------------|-------------------------------------------------|----------------------|--
D|------------------|-------------------------------------------------|----------------------|--
A|------------------|-------------------------------------------------|----------------------|--
E|------------------|-------------------------------------------------|----------------------|--



E|------------------------------------|------------------|----14---------14---------14---------
B|----14-----------14----------14-----|------------------|--------17b19------17b19------17b19--
G|----16b18--------16b18-------16b18--|------------------|-------------------------------------
D|------------------------------------|------------------|-------------------------------------
A|------------------------------------|------------------|-------------------------------------
E|------------------------------------|------------------|-------------------------------------



E|--14---------|----------------|----17b19r17--14h17p14------14---------|----------------------|--
B|------17b19--|----------------|------------------------17------17b19--|----------------------|--
G|-------------|----------------|---------------------------------------|----------------------|--
D|-------------|----------------|---------------------------------------|----------------------|--
A|-------------|----------------|---------------------------------------|----------------------|--
E|-------------|----------------|---------------------------------------|----------------------|--



E|------------------------------|--------------|-----------
B|----17---------17-------------|--------------|-----------
G|----16b18------16b18--14------|--------------|--17b21----
D|--------------------------16--|--------------|-----------
A|------------------------------|--------------|-----------
E|------------------------------|--------------|-----------
http://www.guitartabcreator.com
Guitar Tab Creator is intended to store guitar tab created through the tool. It currently does not support in-line text editing. Any text you place in here will be lost. If you need to comment on your tab, please use the "Tab Notes" section located below.