Aerosmith - Walkin' The Dog (lead guitar)

(/) Slide Up  (\) Slide Down  (h) Hammer On  (p) Pull Off  (b) Bend (r) Release (v) Vibrato

E|-----|-------------------------------------|----0-------0----------|-----------------------|--
B|-----|---------------------------3---------|---------3-----3-------|----15b17--------------|--
G|--2--|--2b3--2b3--2b3--2b3--2b4-------2b4--|-----------------------|-----------------------|--
D|-----|-------------------------------------|------------------2----|-----------------------|--
A|-----|-------------------------------------|-----------------------|-----------------------|--
E|-----|-------------------------------------|-----------------------|-----------------------|--



E|----15------15------15--|----15------15--15----|--
B|----14------14------14--|----14------14--14----|--
G|------------------------|----------------------|--
D|------------------------|----------------------|--
A|------------------------|----------------------|--
E|------------------------|----------------------|--



E|---------------------------|----------------------|------------------------12----------|--
B|--15b17----15b17v----------|--12--15----15b17r15--|--15b17----15b17------------15--12--|--
G|---------------------------|----------------------|------------------------------------|--
D|---------------------------|----------------------|------------------------------------|--
A|---------------------------|----------------------|------------------------------------|--
E|---------------------------|----------------------|------------------------------------|--



E|----------------------------------------------------------------|-----
B|----------------------------------------------------------------|-----
G|--14b16r14--12--------12--14----14b16r14--12--------12--12--14--|-----
D|----------------14----------------------------14----------------|-----
A|----------------------------------------------------------------|-----
E|----------------------------------------------------------------|-----



E|----------------------------------------------|--------------------------------|--
B|-----------15------------------15---------15--|---------15---------15----------|--
G|--14b16--------14b16----14b16------14b16------|--14b16------14b16------14--12--|--
D|----------------------------------------------|--------------------------------|--
A|----------------------------------------------|--------------------------------|--
E|----------------------------------------------|--------------------------------|--



E|-------------------|------------------------------------------------------------|--
B|-------------------|------------------------------------------------------------|--
G|--14v------12------|--12--14--14b16r14--12------12------------------------------|--
D|---------------14--|------------------------14------14--12----------------------|--
A|-------------------|----------------------------------------14--14--14--14--14--|--
E|-------------------|------------------------------------------------------------|--



E|--------------------------------------|---------------------------------------|--
B|--------------------------------------|--17---------17---------14---------14--|--
G|-------------------------------16b18--|------16b18------16b18------16b18------|--
D|--------------------------------------|---------------------------------------|--
A|--12--10------------------------------|---------------------------------------|--
E|------------12--10--12/14--14---------|---------------------------------------|--



E|--15---------14----------------------|--14-------14-------14-------14-------14-----14-----|--
B|-----------------17------17--17--17--|--15b16----15b16----15b16----15b16----15b16--15b16--|--
G|------16b18--------------------------|----------------------------------------------------|--
D|-------------------------------------|----------------------------------------------------|--
A|-------------------------------------|----------------------------------------------------|--
E|-------------------------------------|----------------------------------------------------|--



E|--14-----------0--------|-----
B|--15b16--------0--------|-----
G|------------------------|-----
D|------------------------|-----
A|------------------------|-----
E|------------------------|-----
http://www.guitartabcreator.com
Guitar Tab Creator is intended to store guitar tab created through the tool. It currently does not support in-line text editing. Any text you place in here will be lost. If you need to comment on your tab, please use the "Tab Notes" section located below.