Wicked Game

(/) Slide Up  (\) Slide Down  (h) Hammer On  (p) Pull Off  (b) Bend (r) Release (v) Vibrato

Stave 1:

E|---|-2---------------|-------------2-|-----------------|---------------
B|-0-|-------3-------3-|-------2-------|-0---------------|-------------0-
G|---|-----4-------4---|-----2---------|-------1-------1-|-------1-------
D|---|---4-------4-----|---2-------2---|-----2-------2---|-----2---------
A|---|-2-------2-------|-0-------0-----|---2-------2-----|---2-------2---
E|---|-----------------|---------------|-0-------0-------|-0-------0-----

Stave 2:

E|-2---------------|---------0-----|-----------------|-------------------
B|-------3-------3-|-------2---3-2-|-0---------------|-------------------
G|-----4-------4---|-----2---------|-------1-----2---|-1-----1-------1---
D|---4-------4-----|---2-----------|-----2-----4---4-|-----2-------2-----
A|-2-------2-------|-0-------------|---2-------------|---2-------2-------
E|-----------------|---------------|-0-------0-------|-0-------0---------

Stave 3:

E|-----------------|-----------------|-----------------|-----------------
B|-------3-------3-|-------2-------2-|-----------------|-----------------
G|-----4-------4---|-----2-------2---|-------1-------1-|-------1-------1-
D|---4-------4-----|---2-------2-----|-----2-------2---|-----2-------2---
A|-2-------2-------|-0-------0-------|---2-------2-----|---2-------2-----
E|-----------------|-----------------|-0-------0-------|-0-------0-------

Stave 4:

E|-----------------|-----------------|-----------------|-----------------
B|-------3-------3-|-------2-------2-|-----------------|-----------------
G|-----4-------4---|-----2-------2---|-------1-----2---|-1-----1-------1-
D|---4-------4-----|---2-------2-----|-----2-----4---4-|-----2-------2---
A|-2-------2-------|-0-------0-------|---2-------------|---2-------2-----
E|-----------------|-----------------|-0-------0-------|-0-------0-------

Stave 5:

E|-----------------|-----------------|-----------------|-----------------
B|-------3-------3-|-------2-------2-|-----------------|-----------------
G|-----4-------4---|-----2-------2---|-------1-----2---|-1-----1-------1-
D|---4-------4-----|---2-------2-----|-----2-----4---4-|-----2-------2---
A|-2-------2-------|-0-------0-------|---2-------------|---2-------2-----
E|-----------------|-----------------|-0-------0-------|-0-------0-------

Stave 6:

E|-----------------|-----------------|-----------------|-----------------
B|-------3-------3-|-------2-------2-|-----------------|-0---------------
G|-----4-------4---|-----2-------2---|-------1-----1h2-|-------1-------1-
D|---4-------4-----|---2-------2-----|-----2-----------|-----2-------2---
A|-2-------2-------|-0-------0-------|---2-------2-----|---2-------2-----
E|-----------------|-----------------|-0-------0-------|-0-------0-------

Stave 7:

E|-
B|-
G|-
D|-
A|-
E|-

http://www.guitartabcreator.com
Guitar Tab Creator is intended to store guitar tab created through the tool. It currently does not support in-line text editing. Any text you place in here will be lost. If you need to comment on your tab, please use the "Tab Notes" section located below.