the final countdown

(/) Slide Up  (\) Slide Down  (h) Hammer On  (p) Pull Off  (b) Bend (r) Release (v) Vibrato

E|--9--7--9-----10--9--10--9--7--10--9--10--9-----7------7----------------
B|-----------7---------------------------------7-----10-----10--9--7--10--
G|------------------------------------------------------------------------
D|------------------------------------------------------------------------
A|------------------------------------------------------------------------
E|------------------------------------------------------------------------



E|---------7---------9--7------9------------7------7--9--7------9-----10--9--
B|--9--10-----10--7--------10-----7--9--10-----10-----------10-----7---------
G|---------------------------------------------------------------------------
D|---------------------------------------------------------------------------
A|---------------------------------------------------------------------------
E|---------------------------------------------------------------------------



E|---------7------7--9--7------9-----10--9-----9--10--9-----9--
B|--9--10-----10-----------10-----7---------9------------7-----
G|-------------------------------------------------------------
D|-------------------------------------------------------------
A|-------------------------------------------------------------
E|-------------------------------------------------------------
http://www.guitartabcreator.com
Guitar Tab Creator is intended to store guitar tab created through the tool. It currently does not support in-line text editing. Any text you place in here will be lost. If you need to comment on your tab, please use the "Tab Notes" section located below.