abysmal riffs

(/) Slide Up  (\) Slide Down  (h) Hammer On  (p) Pull Off  (b) Bend (r) Release (v) Vibrato


E|-----------------------------------------------------------------------
B|-----------------------------------------------------------------------
G|-----------5-----------------------------5-----------------------------
D|--5-----------3-----------3--9--5-----------3-----------3--------------
A|-----4-----------2-----2-----8-----4-----------2-----2-----3--2--1--2--
E|--------2-----------1--------7--------2-----------1--------3--2--1--2--



E|-----------------------
B|-----------------------
G|-----------------------
D|--5--------8--------6--
A|-----6-----------------
E|--------7-----5--4-----
http://www.guitartabcreator.com
Guitar Tab Creator is intended to store guitar tab created through the tool. It currently does not support in-line text editing. Any text you place in here will be lost. If you need to comment on your tab, please use the "Tab Notes" section located below.