Practice Sheet #3: Intervallic

(/) Slide Up  (\) Slide Down  (h) Hammer On  (p) Pull Off  (b) Bend (r) Release (v) Vibrato


E|--------------------------------6--8--------------------------------8--6-----
B|--------------------------5--7--------------------------------7--5-----------
G|--------------------4--6--------------------------------6--4-----------------
D|--------------3--5--------------------------------5--3-----------------------
A|--------2--4--------------------------------4--2-----------------------------
E|--1--3--------------------------------3--1-----------------------------------



E|--------------------------------8--6--------------------------------6--8--
B|--------------------------5--7--------------------------------7--5--------
G|--------------------6--4--------------------------------4--6--------------
D|--------------3--5--------------------------------5--3--------------------
A|--------4--2--------------------------------2--4--------------------------
E|--1--3--------------------------------3--1--------------------------------



E|--------------------------------6--9--------------------------------9--6--
B|--------------------------5--8--------------------------------8--5--------
G|--------------------4--7--------------------------------7--4--------------
D|--------------3--6--------------------------------6--3--------------------
A|--------2--5--------------------------------5--2--------------------------
E|--1--4--------------------------------4--1--------------------------------



E|--------------------------------9--6--------------------------------6--9--
B|--------------------------5--8--------------------------------8--5--------
G|--------------------7--4--------------------------------4--7--------------
D|--------------3--6--------------------------------6--3--------------------
A|--------5--2--------------------------------2--5--------------------------
E|--1--4--------------------------------4--1--------------------------------



E|--------------------------------6--10--------------------------------10--6--
B|--------------------------5--9---------------------------------9--5---------
G|--------------------4--8---------------------------------8--4---------------
D|--------------3--7---------------------------------7--3---------------------
A|--------2--6---------------------------------6--2---------------------------
E|--1--5---------------------------------5--1---------------------------------



E|--------------------------------10--6--------------------------------6--10--
B|--------------------------5--9---------------------------------9--5---------
G|--------------------8--4---------------------------------4--8---------------
D|--------------3--7---------------------------------7--3---------------------
A|--------6--2---------------------------------2--6---------------------------
E|--1--5---------------------------------5--1---------------------------------
http://www.guitartabcreator.com
Guitar Tab Creator is intended to store guitar tab created through the tool. It currently does not support in-line text editing. Any text you place in here will be lost. If you need to comment on your tab, please use the "Tab Notes" section located below.